Generation Unleashed Archive

Live Worship
All that I Need
Always
Be Lifted High
Carried Me
He Lives
I Love You Lord
I Will Worship You
King of All
Saved my Soul
Shout it Out
Shine
Song in my Heart
Through Christ

God's Not Dead
All Things
All Your Ways
God's Not Dead
I Give
Most Worthy
Name Above
Shine
Where You Are
Who is Like You

23 comments:

Stephen said...

hey. can you tabbing shout it out?

thatd be awesome. thnx man!

alaboogie said...

Hey kenny...the link to always isn't working...could you fix it? Thanks!

Anonymous said...

Yeah, can you tab out "Shout it out"?
I like the solo, it sounds really cool

Anonymous said...

Hey thanx for posting Generation Unleashed. When I first heard them, I said to myself, "hey, they're music is pretty fun to listen to and the instruments sound great." I see a lot of potential, and they're phenomenal talent-wise in their instruments. The only problem I have with them are their lyrics and originality, if you listen, their lyrics are too cliche, the lead singer is like a mimic of Hillsongs lead singer, and their songs seem like a ripoff of Hillsongs, no offense. I think they just need to be more fresh, and if they do I bet they'll become one of the great christian bands out there. But unless they don't find themselves, I think they'll become just another big church band out there. And I genuinely hope that Generation Unleashed 2008 will bring an original side of them. Just wanted to put that out there. :)

Anonymous said...

can tab and get chords for shout it out? my praise teams likes this song but we don't know the chords.. you dont have to put the solo but can you tab out like.. the chords? thank you God bless!

Anonymous said...

yea, i would have to agree, the chords and tabs for shout it out would be greatly appreciated....God Bless Whoever Does It !!! :P :)

John said...

Yeah, Shout it out would be great if you could post that. Thanks!

Anonymous said...

can you please tab out shout it out? =D

Anonymous said...

SHOUT IT OUT!!

mike said...

Hmmmm... SHout it out...

The Verse/Intro: F#m

Chorus: F#m D A E

Bridge: D A E F#m
(Ending D A (C#5 B5-A5-G#5-F#m))

Shout shout shout it out... F#m

Solo: CHorus CHords its in (Key of A or F#m is its relative minor) solo away with lots of wah and delay hahahh.

mike said...
This comment has been removed by the author.
mike said...
This comment has been removed by the author.
mike said...

OKAY "SHOUT IT OUT" SOME MORE....

Third post... because the tabs gets messed up by the uneven spacing of the font...

btw, these chords are as written from the music sheet we got in the conference (they always dont make sense, but this song does)

Here is the bass line in the intro: ( i tabbed it out in two strings, but if u wanna play with the D string, feel free, just wanna make it easier to write)

A------5(4x)-7(4x)-2(3x)-0- yep repeat...
E-2-(4x)-----------------



Guitar play octaves in the end: (its sumwhere along these lines again.... feel free to do what u want, im more of the improve type of guy)

B-------------------------------------------------s19~~
G-11--13--14--16---11--13--14--16--14--------
D-----------------------------------------------
A--9--11--12--14----9--11--12--14--12---------

yep, somwhere along these lines again...

Solo... suggestions..
Well have fun messing with the Amajor scale i suggest pentatonic for starters
A major scale's relative minor is F# minor scale.

Here is the A pentatonic scale, my version for starters:
so in the high notes mess with these notes: ( this is the scale, this means that play these notes in what ever order you want for the solo, just add lots of bends hammer on, lots of delay and wah, whatever your heart desires)

e-------------------------------------17-19-21-
B-------------------------------17-19----------
G----------------------14-16-18----------------
D----------------14-16-------------------------
A-------12-14-16-------------------------------
E-12-14----------------------------------------

I dont know if u wanna mess with this scale too long, cuz it would be too repetitive, so my suggestion is do what I did wen i was still not as good... Just cut the length of the solo to half, and then hav the other half with a sweeping wah effect (like slowly go back and fort with your wah pedal while playing chords)... These are suggestions, do what you want once again, Im just trying to jumpstart those who are stuck.


hmmm i dont know why its not even spaces.. oh well....

GOD BLESS! Hope I helped...

Anonymous said...

Hey I go to CBC and know one of the people that play the Electric guitar and he told me that the base line for the intro of shout it out goes

A------4-5(3x)-4-7(3x)-0-2(3x)-4--
E-2(3x)--------------------------2

God Bless!

Anonymous said...

CBC as in chinese bible church in San Diego?

Anonymous said...

No CBC is city bible church(the church that gen unleashed is at). Oh and I messed up on the bass line. Swap the last two notes.

Anonymous said...

Hey so I went to GU and I bought the songbook so I could bring the songs to my church, but I seemed to have lost it and I can't find the chords for the songs anywhere online. Any chance you could post what the chords are for the songs? The riffs are great for the guitars and such, but for a worship band you need chords so that all the instruments can play. If you could post those that'd be great.

Also awesome work on the riffs, you're glorifying God with your talent and it's freakin rad!

=)

Anonymous said...

Kenny you are amazing!!! Keep on praising God with your music. By the way I found out how to play the shout it out solo( i got it from my friend who got it from a website where a guy that knows Yas tabbed it out, Yas is the lead electric guitar player at GU). Could you use this and tabb out the rest of the song.

SHOUT SHOUT SHOUT IT OUT
----14-----------------------------
/17-17b19-x6-14-14---------------14
----------------16b18-x3-14-16b18~
-----------------------------------
-----------------------------------
-----------------------------------


17b19-17~--------14----------------
----------17p14--------------------
---------------16---16b18r14-16b18------------------------------------
-----------------------------------
-----------------------------------

Fast part
-----------------------------------
-----------------------------------
16p14p11---------------------------
--------16p14p11-------------------
----------------16p15p14h15p14p12--
-----------------------------------


-----------------------------------
-----------------------------------
---------------14---16/------------
-----14---16---14---16-------------
/16--------------------------------
-----------------------------------


-----------------------------------
-----------------------------------
-----------------------------------
-----------------9-9-9-911-11-11-11
9-9-9-912-12-12-12-----------------
-----------------------------------


-----------------------------------
-------------------10------12------
9-9-9-911-11-11-11-----------------
-----------------------------------
-----------------------------------
-----------------------------------


For this part t means tap the fret with the side of your pick
-----------------------------------
12t10-x5-12t9-x5-12t7-x5-12t9------
-----------------------------------
-----------------------------------
-----------------------------------
-----------------------------------


-----------------------------------
12t10-x5-12t9-x5-12t5-x5-----------
-----------------------------------
-----------------------------------
-----------------------------------
-----------------------------------

For this part you can pick or convert it into tapping with your finger.
-----------------------------------
12p10--x5-17p14---x5--------17b19~
-----11--------16----16b18~-------
-----------------------------------
-----------------------------------
-----------------------------------
This solo isn't all that hard. It it took me three days of playing nonstop to get the hang of it( I drew blood on my fingertips). The text in the coment box might mess up the tabs so there are probably a few mistakes( if you get stuck just listen to the music and play around with the notes in the tabs). Good luck tabbing out the rest of the song.

God bless.

chasbell said...

Do you think you could post the Generation Unleashed songs with the letter chords instead of numbers? That would be such a blessing! Thanks so much!

glackey22 said...

Any chance you could show me how to play "I Worship You" by Gen Unleashed?

uiyui said...

welcome to the wow power leveling cheap Wow gold service site, buy cheap wow gold,wow gold,world of warcraft power leveling buy wow gold

Emmanuel said...

hey i was wondering if its possible for you guys to tab out some of the songs generation unleashed has on their saving power album. A few suggestions would be Sing,Sing,Sing and Standard.

Toni said...

Could you tab out the chords for Our God reigns
By the Generations unleashed
God bless