He Lives

By Jerome

Here are the tabs of the song He lives by Generation unleashed new album "live Worship". I did 2 videos for it; one for lead guitar and for rhythm guitar. I used my Zoom G1X for this song. Have fun!

Lead guitar

I use a BG Drive for the lead guitar: a high gain sound of the Mesa boogie dual rectifier re channel(vintage mode)



Intro: strum
---------------
---------------
--9---11-------
---------------
--7---9--------
---------------
when the drum comes strum the octaves as you hear in the video.

then followed by note bending:
-------------------|------------
-------12----12----|-----10-----
-------15b16-15b16-|(3x)-13b14(3x)-
-14-14-------------|------------
-------------------|------------
-------------------|------------

-------------------|------------
-------12----12----|-----17-----
-------15b16-15b16-|(3x)-20b21(3x)--
-14-14-------------|------------
-------------------|------------
-------------------|------------

Pre-chorus: strum
-------------------------------
-5----7-----8-----10-----------
-8b9--10b11-11b12-13b14--------
-------------------------------
-------------------------------
-------------------------------

Chorus: strum
------------------x----------x-------
------------------12---------12------
-9-x-x-9----------x----------x--7----
-9-x-x-9-10-10-10-x-10-10-10-x--7----
-7-x-x-7-10-10-10-x-10-10-10-x--5----
---------8--8--8----8--8--8----------
repeat 3x then end with

-----------------
-10b11r10b11r10--
-----------------
-----------------
-----------------
-----------------
instead of D power chords

Instrumental: with palm mutes
--------------------------------
--------------------------------
--------------------------------
----5-5-----------5-5-----------
-7-7---7-7-5-5-7-7---7-7-5-5----
--------------------------------

--------------------------------
--------------------------------
--------------------------------
--------------------------------
----------------5-5-5-5-5-5-5-5-
-3-3-3-3-3-3-3-3----------------

Followed by:
--------------------------------
--------------------------------
-------12-12-------------------- 2x
-14-14------14-14-12-12---------
--------------------------------
--------------------------------

-------------------
-------------------
-------------------
---------12(8x)----
--10(8x)-----------
-------------------

Bridge: with palm mutes
-------------------------------------
-------------------------------------
-9-11-12-11---12-11-11-12-----12-11--
-----------9-9-----------12-12-------
-------------------------------------
-------------------------------------

--------------------------------
------13-13-12-12-10-10-12-12---
-11-12--------------------------
--------------------------------
--------------------------------
--------------------------------

-------------------------------------
-------------------------------------
-9-11-12-11---12-11-11-12-----12-11--
-----------9-9-----------12-12-------
-------------------------------------
-------------------------------------

--------------------------------
------13-13-12-12-10-10---------
-11-12-----------------12-12----
--------------------------------
--------------------------------
--------------------------------

Followed by: normal picking
-------------------------------------
-------------------------------------
-9-9-11-11-12-12-11-11---12-12-11-11-
----------------------9-9------------
-------------------------------------
-------------------------------------

-------------------------------------
-------------------------------------
-12-12-----12-12-11-11-12-12---------
------12-12--------------------------
-------------------------------------
-------------------------------------

-------------------------------------
-13-13-12-12-10-10-12-12-------------
-------------------------------------
-------------------------------------
-------------------------------------
-------------------------------------

-------------------------------------
-------------------------------------
-9-9-11-11-12-12-11-11---12-12-11-11-
----------------------9-9------------
-------------------------------------
-------------------------------------

-------------------------------------
-------------------------------------
-12-12-----12-12-11-11-12-12---------
------12-12--------------------------
-------------------------------------
-------------------------------------

---------------------
-12--------17--------
-15b16-----20b21-----
---------------------
---------------------
---------------------

Outro: strum
-------------------------------
-5----7-----8-----10-----------
-8b9--10b11-11b12-13b14--------
-------------------------------
-------------------------------
-------------------------------

-------------------------------
-12----13----15----17----------
-15b16-16b17-18b19-20b21-------
-------------------------------
-------------------------------
-------------------------------


Rhythm guitar:
I use DZ drive for the rhythm guitar: A High gain sound amp Diezel Herbert with 3 separately controllable channels.



Intro & verses: strum
-----------------
-----------------
-----------------
-------5--7------
-2--5--3--5------
-0--3------------
rpt several times (refer to the video). When you're in the verse part do some mutes between the chords.

Em G C D

Pre-chorus: strum the power chords

Em C G D

Chorus: strum the power chords

Em C G C G D

when instrumental comes end with Em

Instrumental: strum (octaves)
------------------------
------------------------
-9--12--11--end w/-7----
------------------------
-7--10--9----------5----
------------------------

Em Em G D
Em Em G D
Em D

Bridge: strum (octaves)
--------------
--------------
-9--7--11-12--
--------------
-7--5--9--10--
--------------

--------------
--------------
-9--7--11-----
--------------
-7--5--9------
--------------

Em G D Em
Em G D D

Outro: strum the power chords

Em C G Am Bm C D Em

7 comments:

Igor Nobrega said...

Amazing!!!! very good!!
God Bless you!

Anonymous said...

Very Good! Thank You

GBU

Anonymous said...

What's the lead part thats really subtle behind verse 1, and what are the harmonics on verse 2?

Anonymous said...

I think the harmonics in he lives in the 2nd verse are

e------(5)------
B----(7)-(5)---
G--(7)----(5)--
D(7)--------(5)-

And the subtle playing in verse 1 I think is the same as the rythme only the last d power chord every time slides either back and forth to high E or just slides to C.

longge said...

The success of Pandora Jewellery uk has been attributed to the Pandora Bracelet. This armlet allows you to actualize your own Pandora section by purchasing beads, clips, and spacers to alone customise your own appearance accessory. Retailers in the UK are even award it harder to buy Pandora stock; as there is such a appeal for the agreeableness bracelets, they just accumulate affairs out!

Falinfashi said...

To select from is indeed significantly wide that you will find elaborate jewelry designs in addition to elegant and straightforward designs. pandora.Buying clothes for comfort can also be yet another practical factor. However, we have a pre-conceived notion that comfortable clothes are not usually stylish and cause you to be appear cool. pandora uk.Positive thing there exists Ed Hardy Clothing. These clothes, although stylish, come in lightweight and comfortable material - permitting individuals to move freely. pandora. A person word of advice-I would prevent acquiring any specific silver jewelry that's not sterling. Pandora Jewelry. Repelling any terrible ingredient during the heavy snow as well as nippy wind, it keeps toes warm along with dry anytime all through winter. ghd sale.Necklaces who have similar sized beads work effectively on tall women and chokers help decrease each side height. ghd straighteners.It truly is accurate cheap Ugg Boots provide method aficionados terrific in addition to broad possibilities to spice up their shows. rrncluding a white and pink compact mirror.ugg boots sale.Longer necklaces aid lengthen each side round or square faces.wedding rings Furthermore they add length when worn beneath the bust-line but above the waist.

carlo aga said...

hi can you make a video of the guitar riff of he lives by generation unleashed on their live recording?thanks and Godbless