Saved my Soul

Here's Saved my Soul by Generation Unleashed. Have a listen to this song at their myspace if you don't have their album!



Tabs
Intro
-------15--------------15------------
----15----15(x4)----15----15-(x4)----
-16--------------17------------------
-------------------------------------
-------------------------------------
-------------------------------------

Verse
-------15--------------15------------
----15----15(x4)----15----15-(x4)----
-16--------------17------------------
-------------------------------------
-------------------------------------
-------------------------------------

-------15--------------14------------
----15----15(x4)----15----14-(x4)----
-16--------------14------------------
-------------------------------------
-------------------------------------
-------------------------------------

Pre-Chorus
-12--15-14---------------------------
-13--------15-12-12----15------------
-12-----------------14---------------
-------------------------------------
-------------------------------------
-------------------------------------


-12--15-14---------------------------
-13--------15-12---12--15------------
-12----------------12--14------------
-------------------------------------
-------------------------------------
-------------------------------------

Chorus
I forgot my parts for first round of the chorus, follow the 2nd round instead.
-7--12-------------12----------12----
-8--13--(x2)----12----12----13----13-
-7--12-------12----------12----------
-------------------------------------
-------------------------------------
-------------------------------------

-----15----14------
---15--15----15----
-12------------14--
-------------------
-------------------
-------------------

-------12----------12----------
----12----12----13----13--15---
-12----------12-----------14---
--------------------------12---
-------------------------------
-------------------------------

4 comments:

Anonymous said...

could you do the bridge as well please..!!!

Anonymous said...

does anyone have the chords for this song?

Anonymous said...

For the Bridge just play around with the last chord in the tabs.

------
--15--
--14--
--12--
------
------

ingramdaniel said...

chords for this song would be awesome so we can do it in church
thanx nd god bless