Guitarpraise is back!

It's been seven years since I last posted but I've recently started again making videos again! I've not been making tabs though and won't be posting them on the blog, so do check out the Guitarpraise channel on Youtube for the videos, and subscribe to the channel to get updates whenever I post new stuff. Recent additions include Way Maker, Extravagant, Now I'm Free, Man of Sorrows, as well as a newer version of Mighty to Save from United's Israel tour (see below for the clip). Hope to continue posting!

Search My Heart

By Luan

Here’s Search My Heart of the Aftermath album, Hillsong United 2011.


Key B

Intro/Verse
Riff 1
e|----------------|
B|----------------|
G|--9-7-9---------| 
D|--------10-9-7--| 
A|----------------|
E|----------------|

Riff 2
e|----------------|
B|----------------|
G|--9-7-9-12-10-9-| 
D|----------------| 
A|----------------|
E|----------------|

Chorus 1
e|----------------------------------------------------|
B|------------------------------------------10--------|
G|----9------------7------------9---------7----7------| 
D|-10---10------10---10------10---10------------------| 
A|---------(4X)---------(4X)---------(4X)--------(4X)-|
E|----------------------------------------------------|

Chorus 2/Bridge 2
e|----------------------|
B|-----------------10---|
G|---9----7----9---7----| 
D|--10---10---10--------| 
A|----------------------|
E|----------------------|

Take it All (Live in Miami)

By Luan

The riff 1 is used only at the beginning of the song, riff 2 is used in 
the rest of the song.


Key B

Riff 1
e|----------------------------------14----14/16-|
B|-14-14-14--12-12-12-11-11-11---14----14-------|
G|----------------------------------------------| 
D|----------------------------------------------| 
A|----------------------------------------------|
E|----------------------------------------------|

e|----------------------------------------------|
B|-14-14-14--12-12-12-11-11-11------------------|
G|-------------------------------11-11-9-9-8----|
D|----------------------------------------------| 
A|----------------------------------------------|
E|----------------------------------------------|

Riff 2
e|----------------------------------14----14/16-|
B|-14-14-14--12-12-12-11-11-11---14----14-------|
G|----------------------------------------------| 
D|----------------------------------------------| 
A|----------------------------------------------|
E|----------------------------------------------|

e|----------------------------------------------|
B|-14-14-14--12-12-12-11-11-11------------------|
G|-------------------------------11-11-9-8------| 
D|-----------------------------------------9----| 
A|----------------------------------------------|
E|----------------------------------------------|

Stay and Wait (instrumental)

By Kenny

Here's the instrumental part of Stay and Wait, from Hillsong United's Zion album. I notice that most people tend to play it just with the first two strings, but this means you fretting hand has to move up and down the fretboard quite a bit. Here, I switch to the 2nd and 3rd strings as well, to reduce movement.




Instrumental
Strum
-----------------14--12---------14-----
-10--9--10-(x2)--15--14--9--10--15--12-
-9---9--9----------------9--9-------9--
---------------------------------
------
---------------------------------
------
---------------------------------
------

Chorus
For the chorus (not in video), play around with these notes
----------------------
-10---9---7---14------

----------------------

-11---9---7---14------
----------------------

----------------------

Up in Arms

By Kenny 

 Here's the verse/intro riff from Up in Arms, taken from United's new Zion album. The video quality is rather poor, but the tabs should make things clearer!



Verse (first half)
--------------------------3-0--------
-----5-----------5------------3------
---5----------5---------4-------5----
-7---------5----------5-----------5--
-------------------------------------
-------------------------------------



Verse (2nd half)/Intro
-----5-------5-----------------------
---------8----------5---5---5---5----
---5---5---5---5------5---5---5---5--
-7-----------------------------------
-------------------------------------
-------------------------------------

---------------0----------------------
-----3---3---3---3-------------------
---4---4---4---------5------0---0----
-5-----------------5----5s7---5------
-------------------------------------
-------------------------------------