Take Over

Here's Take Over by Youth Alive, a heavy metal-ish song. Lots of pounding bass riffs here!



Tabs
Use drop D tunning throughout.

Intro
Mute the notes in italics.
------------------------------
------------------------------
------------------------------
------------------------------
------------------------------
-8-7-0-5-7-5-0-3-3-3-6-5-3-0--

------------------------------
------------------------------
------------------------------
------------------------------
------------------------------
-8-7-0-5-7-5-0-1-1-1-s8-8--88-

Verse
Mute the bass notes.
-----------------------------
-----------------------------
-----------------------------
-------10--10----------12-12-
-------8---8-----------10-10-
-8-8-8---8----10-10-10-------

---------------------------------
---------------------------------
---------------------------------
----------14-14-----------14-14--
----------12-12-----------12-12--
-12-12-12--------12-12-12--------

Pre-Chorus
-13-12-10-10h12-10-8-(missed this------
----------------------note in the vid)-
---------------------------------------
---------------------------------------
---------------------------------------
---------------------------------------

------9---9------9-----13-12-10-10h12-10-8-
----9---9------9---9-----------------------
-11---------11-----------------------------
-------------------------------------------
-------------------------------------------
-------------------------------------------
Play Gm, Am, then lead to chorus


Chorus
Bb C Gm Gm (x3)
Bb C

Chord fingerings - these are power chords, played throughout all the strings.
-8--10--5--------------------------------------
-11-13--8---------------------------------------
-10-12--7---------------------------------------
-8--10--5--------------------------------------
-8--10--5--------------------------------------
-8--10--5--------------------------------------
Bb C Gm

5 comments:

Luke said...

hey kenny.. tks u very much guy... i always wanna play it.. but i never found its tab... tks
and... can u tab out the bridge?
GBY

Anonymous said...

hi what album is this song from?

h4ck3r said...

heey, i watched this video than played a random song in itunes and guess what came out? Skillet-My Obsession... and it sounds exacly the same . check it out

Jonathan the same as jon said...

Your guitar looks like it changes colors!!!

Greg said...

@h4ck3r Also, check out the original version of Moonlit, by Falling up (not the exit lights version) The riff is very similar. lol