Always

Here's Always, a new Generation Unleashed song. You can check it out at www.genunleashed.com. It is nothing like United's Always!



Tabs
Intro
------------------------------------------
------------------------------------------
------------------------------------------
-3-3-3-3-3-3-3-3-3-4-4-4-4-4-4-6-6--------
------------------------------------------
------------------------------------------

------------------------------------------
------------------------------------------
------------------------------------------
-3-3-3-3-3-3-3-3-1-1-1-1-1-1-1-1-1--------
------------------------------------------
------------------------------------------

At the same time, another guitar plays
------------------------------------------13-13-
-14-14-14-14-14-14-14-14-16-16-16-16-16-16------
------------------------------------------------
------------------------------------------------
------------------------------------------------
------------------------------------------------

-------------------------------------------------
-14-14-14-14-14-14-14-14-13-13-13-13-13-13-13-13-
-------------------------------------------------
-------------------------------------------------
-------------------------------------------------
-------------------------------------------------

Loud part
Strum
-----------------------
-9--7--6---4--9-7-6----
-6--8--6---5--------6--
-----------------------
-----------------------
-----------------------

Verse
With dotted 8th note delay.
------------------------------------------
-18----18----18---19----19----19----------
---18----18----18---18----18----18--------
-----18----18---------18----18------------
------------------------------------------
------------------------------------------

------------------------------------------
-18----18----18---21----21----21----------
---18----18----18---18----18----18--------
-----18----18---------18----18------------
------------------------------------------
------------------------------------------

Alternatively, you can play it like this:
-13----13----13----14----14----14---------
---14----14----14----14----14----14-------
-----13----13----------13----13-----------
------------------------------------------
------------------------------------------
------------------------------------------

-13----13----13----16----16----16---------
---14----14----14----14----14----14-------
-----13----13----------13----13-----------
------------------------------------------
------------------------------------------
------------------------------------------

Bridge
--------------------------------------------
--------------------------------------------
-10-8-8-10-8-8-10-8-11-10-10-11-10-10-11-10-
--------------------------------------------
--------------------------------------------
--------------------------------------------

At the same time, a 2nd guitar plays
-------------------------------------------------
-14-13-13-14-13-13-14-13-16-14-14-16-14-14-16-14-
-------------------------------------------------
-------------------------------------------------
-------------------------------------------------
-------------------------------------------------

6 comments:

Pakman said...

so how do you play the chorus??

Peter said...

can you put the chords on too? like Em or Gsus? plz? (:

Pakman said...

oh i found out that the chorus is same as intro :]

Chen said...

Yeh that would awesome if you could put the chords up as well pls, your link to where we can find them :D

Jared said...

sry man, these chords are a step lower than the actual song.


[brag]IM GOING TO GU this month!! It's gonna be great :) [/brag]

ken2012 said...

Forgive me to put it in this way, I use the absolute not because that I abhorrence replica bag and I hardly can not acquisition a favourite Louis Vuitton bag. It is just because it is archetypal yet fashionable. Afterwards all, covering is not steel. Monogram Canvas is so “painstaking”.