With Christ

By Jerome

This is a powerful song! I was reminded of Galatians 2:20 which says: "I have been crucified with Christ and I no longer live, but Christ lives in me. The life I live in the body, I live by faith in the Son of God, who loved me and gave himself for me." I love to play this song
over and over coz it reminds me that Jesus died so that we may live.



Instrumental: little bit of delay.
Strumming part
------------------|----------------------
-12--11----11--12-|-12-12-12-12s14-14-14-
-------11--11--11-|----------------------
-9----------------|----------------------
------------------|----------------------
------------------|----------------------

-----------------------------------------
-16-16-11-11-11-11-11-14-----------------
------------------------11---------------
--------------------------11-13-13b14r13-
-----------------------------------------
-----------------------------------------

----------------------------------------
---------------11b12r11b12-11-11s14-14--
-8-9-9s11-11-11-------------------------
--9-------------------------------------
----------------------------------------
----------------------------------------

-19-19-18p16h18-14-14-16-16-16-11-11-14-14-
-------------------------------------------
-------------------------------------------
-------------------------------------------
-- ----------------------------------------
-------------------------------------------

----------------------------12--12------
-12-12-14-14---12-12--12-12---12---12---
-------------11-----11------------------
----------------------------------------
----------------------------------------
----------------------------------------

Strum
-12-------------------------------------
-12----end with-12-then-slide-down------
----------------------------------------
----------------------------------------
----------------------------------------
----------------------------------------

2 comments:

Anonymous said...

Can you please tell me what song/artist is this?

black.night_13 said...

Can someone give me the chords for this song...? I can't find it anywhere on the internet... Please help!!!