To Know Your Name

By Jerome

The instrumental part is easy to play. Here are the tabs. And click here for the verse.



Instrumental:
Strum the inversion Chords
(Put a little bit of delay)
-----------------
-15--14--10-14---
-14--14--11-14--- 2x
-12--12--9--12---
-----------------
-----------------

---14--14--------------------------------
--------------17--17--17--15--15--14--14-
-14--14--14--14--14--14--14--14--14------
-----------------------------------------
-----------------------------------------
-----------------------------------------

---14--14--------------------------------
--------------17--17--17--15--15--15--15-
-14--14--14--14--14--14--14--14--14------
-----------------------------------------
-----------------------------------------
-----------------------------------------

3 comments:

Anonymous said...

hey jerome, i like it... hey you use the behringer dd100 right? what the settings that you use for it?

Guitar_man32@yahoo.it said...

Thanks!,I don't use my DD100 anymore but the Zoom GM200. so can't tell you the delay settings.

Jerome

Colin said...

hey jerome is there an extra 14 on the third string before you play the 17 on the second?