Tell the World (Bass)

By James




Intro/verse
F# E C# D C# A
G|---------------------------
D|---------------------------
A|--999--777--444--555--4--0-
E|---------------------------

[k: alternatively, I prefer...]
G|------------------------------
D|--444-222---------------------
A|------------444--555--444--00-
E|------------------------------

11 comments:

Anonymous said...

dude...i never would have been able to figure that song out without you. ROFL. it's only been out for like 3 years now.

forresal said...

"anonymous"

if you're going to take a shot at someone that contributes to this site, at least include your name.

Nice job, James! Thanks for your efforts. Only problem is that your bass can't be heard that well on the vid. But the tab I'm sure will help some players!

Anonymous said...

maybe next time i'll just say..."HEY GUYS!!! this is a G chord!!!

Anonymous said...

LOL yeah man.dude seriously.everyone knows how to play this.lol you're a real joke.

Anonymous said...

LOL you're a joke. ROFL

irajames said...

well i noticed that this song wasnt in GP's archives yet so i decided to make a video of it. God Bless

Anonymous said...

I thought that you used really bad form on this one. Try,

G-----------------------------------------
D--4-4-4-2-2-2--------------------------
A-----------------4-4-5-5-5-4-4-4-0-0-
E-----------------------------------------

joshua said...

Dude, Anonymous, what the heck?
He's just trying to help out people who want to play the song.
You know, so they can worship God.

And who cares how it's played?
G|------------------------|
D|------------------------|
A|-999-777-44-555-444-000-|
E|------------------------|

I like it like this, so all you have to do is travel down the line.

And on the last line before the chorus, I'm pretty sure it goes like this.
G|------------------------------|
D|------------------------------|
A|-999-777-44-22222222-55555555-|
E|------------------------------|

The Man said...

As a new bassist, thank you so very much for posting this.

I could say a few things.. but instead : Keep on keepin on and ignore the rest.
It's all for HIM, right?

Also, I like how you walk down the A-string for the intro.
Maybe when my coordination is better I can try the alternative fingering with confidence.

the one said...

thanks for adding the song. one thing that we all need to learn is to say thank you or just not comment at all. there are people that do not know and would like to learn. mate, please do not be discouraged. thank you for all the hard work.

Jomar said...
This comment has been removed by the author.