Forevermore

Here's Forevermore by the Paradise band. Pretty good music, if you haven't heard of them.



Tabs
Intro
A E F#
---------------------
---------------------
-16--14--13----------
---------------------
-14--12--11----------
---------------------

Verse
A E F#m
---------------
---------------
-6-6-6--7--7---
---------------
-4-4-4--5--5---
---------------

A Bm F#m, followed by the same riff.

A E F#m F#m

D D E E

Chorus
A E D Bm
A E Bm D

Instrumental
Bm D A E/G#

-----------9------------------9-----------
------------------------------------------
-9-11-9-11---11-9---9-11-9-11---11-11-----
------------------------------------------
------------------------------------------
------------------------------------------

Bridge
Bm D A E/G#
------------12------------------------------
-14----(x4)-------(x4)-14----(x4)-12---(x4)-
----14---------14---------14---------14-----
------
--------------------------------------
--------------------------------------------
--------------------------------------------

Strum
-----------------
------------14---
-7--9--11--------
------------11---
-5--7--9---------
-----------------

D to lead into the final chorus.

1 comment:

Chris M. said...

I haven't heard them until now. Good stuff! Seeing that definitely made me want to check out their music.