I Love You Lord

This is a fantastic contemporary update to an old classic, 'I Love You Lord', by Generation Unleashed. Do have a listen even if you've not heard the song.



Singing Part
The plucking and sliding should be quite obvious from the video - I'll just put down the chord fingerings here. These chords are derived by taking the A and B string notes from the barre chords.

-----------------------------------
-5--7----9--7---9--10--5--4--4--5--
-----------------------------------
-----------------------------------
-4--6----7--7---7--9---4--2--4--2--
----------------------------
C#m B/D# E Esus E F#m C#m B C#m B

------------------------------5----
-5--7----9--7---9--10--5-----------
----------------------------6------
--------------------------7--------
-4--6----7--7---9--9---4-----------
-----------------------------------
C#m B/D# E Esus E F#m C#m A

Repeat the last three chords (F#m, C#m ,A) two more times, followed by

-----7---
---------
---8-----
-9-------
---------
---------

Instrumental
Play each note several times; refer to the video.
---------12-11-9-11-12-17-16--
------------------------------
-9-11-13----------------------
------------------------------
------------------------------
------------------------------

-12-14-16-12-11-9-11-12--
-------------------------
-------------------------
-------------------------
-------------------------
-------------------------

5 comments:

O Dog said...

God Bless You! Thanks for tabbing this version of the song.

Samuel said...

Do you play the same chords and riffs for the bridge where the repeat "How I love you Jesus" over and over again?

Paul said...

where can i get a hold of this song?

Anonymous said...

was there any "pedal use" in this video????

longge said...

There are abounding accomplished food in Hong Kong and Singapore that advertise Swiss fake watch . You'll be afraid at the bulk cogwheel you can find. You can aswell get the chargeless 'extras' into the bargain. But absolute adeptness buyers attending added afield. Abounding will seek to buy from boutiques in Europe.