The Hand that Holds the World

Here's Han's very first post, on Starfield's The Hand that Holds the World. He hasn't really got the hang of video editing, so the video's out of sync. But the notes are there, and hopefully he'll get it right the next time round!

By Han

Intro
E ------------------------
B-12-12-11-12--14--12---9-
G-11----11-----11-------9-
D-9------------11---------
A-------11--------------7-
E-------------------------
E--------------------------
B-11b12r11b12r11------9----
G----------------11-8---8--
D--------------------------
A--------------------------
E--------------------------
x4, followed by

E--------------
B--------------
G-6-4---6--8---
D--------------
A--------------
E--------------

Bridge
E------------------
B------------------
G-----8-----8-8----
D------------------
A-7-7---7-7--------
E------------------

5 comments:

timcooke said...

Thanks a lot!! Starfield's an awesome band and I'm learning as many songs as I can from their newest album, "Beauty in the Broken". If you have any more, put them up, please!!!

Anonymous said...

out of tune...
but good effort

Anonymous said...

intro doesnt sound right .. especially the last chords .. but maybe thats just me?

Raymond said...

hey! this is awesome. it's really accurate. i love starfield and they're my favorite band ever.

they're coming up with a new album (I Will Go) soon and i hope that if you have time, you can post some/all of their new songs.

God Bless

Anonymous said...

Hey, nice job. I just want to ask what type of guitar that you are playing. It looks like a les paul or a copy of one. Ty