Be Lifted High

Here's Be Lifted High by Generation Unleashed. Use a lower mix for the dotted 8th note delay for the first part of the song up to the bridge.



Tabs

Intro
--------------------------------------
--------------------------------------
-9-----9-----9---7----6-----7---------
---7-7---7-7---7---7-7--7-7---7-------
--------------------------------------
--------------------------------------

Verse
-------------------------------------------
-------------------------------------------
-------------------------------------------
-------6-6-6-7-7------------6-6-6-7-7-(x2)-
-7-7-7-----------(x2)-9-9-9----------------
-------------------------------------------
Repeat, followed by...

--------------------------------------
-----------------10-10-10-9-9-9-------
-6-6-6-7-7-7-6-6----------------9-9---
--------------------------------------
--------------------------------------
--------------------------------------

--------------------------------------
--------------------------------------
--------------------------------------
-4-4-4-6-6-6-7-7-4-4-4-6-6-6-7-7------
--------------------------------------
--------------------------------------

Repeat the above two lines again.

Chorus
Strum
--------------------------------------
-14--12--14--15--14--12--14--15-------
-14--14--14--14--14--13--14--14-------
--------------------------------------
--------------------------------------
--------------------------------------

Bridge
Guitar 1
--------------------------------------
-----
-------------------------------------------
-9-----9-----9---(x2)-4-----4-----4---(x2)-
---7-7---7-7---7--------6-6---6-6---6------
-------------------------------------------
-------------------------------------------

------------------
------------------
-6-----7-----6----
---7-7---7-7---7--
------------------
------------------

Guitar 2
-----------------------17..-16..------
-17...------(x2)----------------------
------14...------16...----------------
--------------------------------------
--------------------------------------
--------------------------------------

1 comment:

Aaron said...

what software do you use?