God's Not Dead

Here's God's Not Dead by Generation Unleashed.. check out the instrumental, which uses a bender effect, an effect that transposes the pitch of the note you play by a certain amount.. great fun. The note is transposed by an octave, or 12 notes, in the song.



Tabs
Intro:
This part is actually played by a piano, I've transposed it to the guitar. Use some delay so that your notes don't break up when you change between them.

-10-12-13----10-12-13-------
----------10------------11--

----------------------------
----------------------------
----------------------------
----------------------------

-10-12-13-----13----12------
----------13-----13----13---
----------------------------

----------------------------

----------------------------

----------------------------


Verse:
----13-------17------13------12-
-13-------13------13------13----

--------------------------------

--------------------------------

--------------------------------

--------------------------------

Instrumental
Notes in italics are to be bent up an octave with a bender pedal.
-----------------------------
-13--12-------
-11-11---
11-11--15-15--15-15---------13--15-
--------------------------------------------
--------------------------------------------
-------------------------------
-------------
-------------------------------
-------------

------------------------------13--12--15--17-
-11-11---
11-11--15-15--15-15-----------------
---------------------------------------------
---------------------------------------------
-------------------------------
--------------
-------------------------------
--------------

7 comments:

cmorales said...

Can you write down the chords for this song?

kenny said...

Intro:
Dm Bb F C

Verse:
Dm Bb F C

Chorus:
Dm Bb F C

Instrumental:
Bb Bb Dm Dm
Am Am Dm C-F

temo said...

Thank You!!

Anonymous said...

did your pod give you the octaves for the solo? or did you use something different?

Matthew said...

This is my church. We're recording a new album this month.

Igor said...

Hi, I'm Igor From São Paulo, Brazil. What kind of pedal do you use to this song? what efects?
Thank
Igor

Luke said...

plz can u tab out the outro?