God is Great

By Daryl



Tabs
Intro
|-----------------

|-----------------
|--4-9-8-6-11-9-4-
|-----------------
|--2-7-6-4-9--7-2-
|-----------------

Instrumental (4:24)
|----------------------------
|----------------------------
|----------------------------
|--------1-2-1---------------
|--2-2-4-------------1-2-1-2-
|--------------2-2-4---------

2 comments:

Simon said...

Cool, thank you!!!
God Bless you

Rodney said...

What key is this in ?