Shine

Here's Shine by Generation Unleashed.



Tabs
Intro & Chorus
You're supposed to do the slides from the previous note, but i didn't practice enough, so i cheated in the video :P
----------------------------------------------
-13..-s17..-15..-13-13--12..-s17..-15..-13-13-
----------------------------------------------
----------------------------------------------
----------------------------------------------
----------------------------------------------

------------------------15--15--15-15--15--15-
-10..-s17..-15..-13-13----13--13-----13--13---
----------------------------------------------
----------------------------------------------
----------------------------------------------
----------------------------------------------

Verse
Pluck these chords
------------1----3--
-3-----3----3----1--
-5-----5----2----0--
-5-----5----0----3--
-3------------------
-------3------------
Csus2 Gsus4 Dm Fsus2

Followed by:
-------------------------------------------
-13..-13s15..-15s17..-12..-12s13..-13s15..-
-------------------------------------------
-------------------------------------------
-------------------------------------------
-------------------------------------------

----------------------
-10..-10s12..-12s13..-
----------------------
----------------------
----------------------
----------------------
Slide between each note as much as possible.

Chorus
Chords
C G Dm C/E F

Play the intro over these chords as well.

Instrumental
Slide between each note.
---------------------15--15--15-15--15--15-
-12..-13..-15..-13..---13--13-----13--13---
-------------------------------------------
-------------------------------------------
-------------------------------------------
-------------------------------------------

1 comment:

Jonathan S said...

hey sic video
but what tone are you using ?