Carried Me

The lead guitar for this song (by Generation Unleashed) uses pretty standard lines which you can use for most songs - a simple one-note-per-chord melody line... either in octaves (chorus) or single notes (bridge).



Tabs

Chorus
Strum
------------------------------------
------------------------------------
-9--11--13--6---9--11--6-8-9-11-----
------------------------------------
-7--9---11--4---7--9---4-6-7-9------
------------------------------------

At the end, another guitar plays:
----16-------14------12--
-12----12s10----10s9-----
-------------------------
-------------------------
-------------------------
-------------------------

Bridge
Scaling up to the lead part..
-------------------
-------------9s12--
------8-9-11-------
-9-11--------------
-------------------
-------------------

Play each note several times
----11-----16-14-12-11--------11----17-16-14-12-11-
-12----12--------------12--12----12----------------
---------------------------------------------------
---------------------------------------------------
---------------------------------------------------
---------------------------------------------------

----11-----16-14-12-11-------17--16--11-
-12----12--------------12----17--17--12-
----------------------------------------
----------------------------------------
----------------------------------------
----------------------------------------
Repeat the last three notes a few more times to end.

2 comments:

Octavian said...

What effect do u use for this song?

kenny said...

The Class 30 and classic distortion sims from my pod xtl