Where You Are

Here's Where You Are, by Generation Unleashed. If you haven't heard of them, check their myspace out, their fast songs are pretty good. The introduction is pretty catchy, and the chorus makes use of octaves. The verse and bridge are pretty easy as they comprise of single notes, but try to avoid breaks in between the notes.



I fumbled at the verse though, apologies!


Tabs:
Pre-Intro
-----------------
-----------------
-6b8----11b13----
-----------------
-----------------
-----------------

Intro
(palm mute the notes slightly to give them more punch & less ring)
----------------------------------------
-4---4---5----4----4--------------------
---4---4----4----4---4-6b8r6-4----------
----------------------------------------
----------------------------------------
----------------------------------------

----------------------------------------
-4---4---5---7-5-4----------------------
---4---4---4-------6-4-3----------------
----------------------------------------
----------------------------------------
----------------------------------------
Repeat twice. The chords for this section are G#m E B F#.

Verse
----------------------------------------
----------------------------------------
-1-1-1-1-4-4-4-4-8-8-8-8-3-3-3-4-3------
----------------------------------------
----------------------------------------
----------------------------------------

----------------------------------------
----------------------------------------
-1-1-1-1-4-4-4-4-8-8-8-8-6-6-6-6--------
----------------------------------------
----------------------------------------
----------------------------------------
Repeat. To end, play the 4th fret of the G string. The chords for this section are G#m E B F#

Chorus
Strum the following octaves, slide between them.
---------------
---------------
-8--9--11--9---
--------------- (x2)
-6--7--9---7---
---------------

Followed by these power chords:
C#m D# (less the middle note, i.e. the octave) E
B F#

C#m D# (less the middle note, i.e. the octave) E
F#

Bridge
For the first half:
--------------------
--------------------
-1--4--8--3---(x2)--
--------------------
--------------------
--------------------

For the 2nd half, play each note 4 times:
----------------------------------------
----------------------------------------
-6-6-8-9--4-4-8-9--1-1-3-4------3-4-----
----------------------------4-4---------
----------------------------------------
----------------------------------------

----------------------------------------
----------------------------------------
-6-6-8-9--4-4-8-9--1-1-3-4------3-3-----
----------------------------4-4-4-4-----
----------------------------------------
----------------------------------------

Chords: C#m E G#m F#

6 comments:

Andrew said...

all good except for the bridge...i'm pretty sure they're playin octaves

mike said...

It would be cool if u do shout it out hahaha that have a cool solo, maybe u dont wanna tab out the solo but at least give people an idea of where to play it.

steven said...

can you please tab out the power chords?!?!

Anonymous said...

the chords for the shout it out are
Verse F# D E B Chorus F# D A B(E)
Bridge D A B, D A E, D A C#

Anonymous said...

btw, solo is on the 14th fret so just
improvise with pentatonic and try to
match it to the actual solo.

ken2012 said...

Throughout 2008 Pandora Necklaces has experienced a rise in the number of retailers wishing to undertake a Pandora shop fit. The ‘shop in shop’ concept is a clearly defined space in a store, solely is dedicated to Pandora. The ‘shop in shop’ is comprised of Pandora fittings and displays.