I Believe (Bass)

By Bass Levite



Intro and verse:
---------------------------------------------
---------------5-5-5-------------------------
-7-7-5-5-7-5-7-------3-3-3-3-3-3-5-5-5-5-5-5-
---------------------------------------------

Chorus:
| G | D | Em | Em D |
| C | C | G | D |
| Am | Am G/B | C | C |


Instrumental: (repeat twice)
---------------
---------5-7---
-7-7-5-7-----5- (3x)
---------------

-------------7h9-
-----5-5-7-7-----
-7-7-------------
-----------------


Bridge: (repeat a few times)
| G | G | G | G | C | C | C | C |

3 comments:

Sam said...

the rhythm isnt right

Anonymous said...

Its delayed. I think teh recording has something to do with taht

sammuel said...

sounds goodssss . yeah!