All That I Need

Here's All That I Need by Generation Unleashed. I had just adjusted my guitar's intonation, rather badly, so the guitar sounds rather not-in-tune - apologies!



Tabs

Verse
---------9----------9--
---------9------9---9--
-----9---9----9---9-9--
---11-11----9----------
-9---------------------
-----------------------

-----------------------------5-4--
-------10----12--10------5--------
----11----11-11--------6----------
-12----------12------7-----7------
----------------------------------
----------------------------------

Pre-Chorus
----------------10-------9----10-9---
----------10----------10---10-10-10--
-------11----11-----9----------------
-11s12-------------------------------
-------------------------------------
-------------------------------------

-----------------------------
-----------10------9---10-9--
------9----------9---9-9--9--
---11---11-----9-------9--9--
-9---------------------------
-----------------------------

Chorus
-------------------------16-12-
------14----12-----12----------
-9s11----13-----14----14-------
-------------------------------
-------------------------------
-------------------------------

Bridge
Strum
------------------------

-15--14--9--15--14--17--
-14--14--9--14--14--16--
------------------------
------------------------
------------------------

----------------17--19--
-15--14--9--15--17--17--
-14--14--9--14----------
------------------------
------------------------
------------------------

2 comments:

O Dog said...

Sweet job! Yeah, you did notice the out of tune-ness, but that's fine,it'll sound that much better when people actually play it (you as well, when you get you properly intonated)

glackey22 said...

any chances you have a chord chart for this song?