Let God Arise

Here's Let God Arise by Chris Tomlin.



Tabs

Intro
--------------------------------------
--------------------------------------
-------4-4-4-4-4----------------------
-----------------------6-6-6-6-6------
-2-2-2-----------2-2-2----------------
--------------------------------------

Alternatively,
--------------------------------------
--------------------------------------
-------4-4-4-4-4-------1-1-1-1-1------
--------------------------------------
-2-2-2-----------2-2-2----------------
--------------------------------------

Verse
Hold B for awhile, then G#m F#m, followed by

-------------------------------------------
-------------------------------------------
-----4-----4-------4-----4-------6-----6---
-2-2---2-2---2-1-1---1-1---1s4-4---4-4-----
-------------------------------------------
-------------------------------------------

-------------
-------------
-4-3---------
-----4s6-4---
-------------
-------------


-------------------------------------------
-------------------------------------------
-----4-----4-------4-----4-------6-----6--- F#
-2-2---2-2---2-1-1---1-1---1s4-4---4-4---4-
-------------------------------------------
-------------------------------------------

Chorus
B, then strum

--------------
--------------
-13--14--13---
--------------
-11--12--11---
--------------

Interlude
--------------------------------------
-10-10-9-10-10-9-10-9-----------------
----------------------11-9-9-9-9------
--------------------------------------
--------------------------------------
--------------------------------------

8 comments:

Anonymous said...

Good, work, my only thing would be that you need to work on the rhythms a bit more as what you play is different to the recording!

But thats just something to work on, or you can claim artistic liscence and say you want to do a different rhythm!

God Bless

Anonymous said...

On the verse, it's F#, not F#m.

godblessyou94 said...

wow!!! nice job. i cant play it fast enough right now so ill be practicing and someday i can play like u =)

June Anthony said...

Praise the Lord for you! Our worship leader just told me that we will be playing this song tomorrow and I've been listening to this song for hours just to get the leads... until I saw this blog. This really made it so easy for me... God bless and continue the work.. ^_^

No Disponible said...

hey what are the chords for the chorus? need help.

Nick Williamson said...
This comment has been removed by the author.
Nick Williamson said...

I reckon the chorus chords are B, B7sus4, Esus4, E - all over a B bass note.

Not playing the full chords, obviously... but pick the important notes out of those chords and you won't go far wrong.

longge said...

In 1936 they advised and congenital the Radiomir, a Replica Cartier Watches called afterwards a beaming actual acclimated to accomplish it afterglow in the dark. It is arguably the aboriginal actualization of a wristwatch featuring afterglow in the aphotic arms. In 1997, Panerai was taken over by Richemont. Richemont is a Swiss, affluence appurtenances company.