Shout it Out

I've had loads of requests for the shred-fest instrumental in Generation Unleashed's Shout it Out, so here's how I think its played. The notes around 19sec don't sound correct though, so if you've a suggestion do leave a comment :)



Tabs
With wah throughout. Helps to cover your (and my) mistakes :)
-----12-14---------------------------
-s14--------17b19-17b19-17b19-17b19--
-------------------------------------
-------------------------------------
-------------------------------------
-------------------------------------

-------------------------------
-14----------------------------
----16b18-18r16-14-16-16b18----
-------------------------------
-------------------------------
-------------------------------

-14----17b19-17--14-------14----------------------
----14--------------17p14-------------------------
-----------------------------16b18-18r16p14-14h16-
--------------------------------------------------
--------------------------------------------------
--------------------------------------------------

I'm a little unsure about this part...
------------------------------------------
------------------------------------------
-11-11p10p9----------------------9h11-11--
------------11p10p9s7-7-7h9-9s11----------
------------------------------------------
------------------------------------------

Not sure about this part either; alternate each note several times quickly
---------------------------
-------------------10-12---
--------------9-11---------
-9-7-7-9-9s11--------------
---------------------------
---------------------------

Pick-tapping is needed for this part; keep tapping on the 17th fret of the B string.
--------------------------
-10--9--7--9--10--9--5----
--------------------------
--------------------------
--------------------------
--------------------------

Tap this part; you can do hammer-ons and pull-offs if your fingers can stretch too.
-------------------------------------
-12p10p7----followed by---17p14p12---
-------------------------------------
-------------------------------------
-------------------------------------
-------------------------------------

To end, play
----------------
--14----17b19---
----------------
----------------
----------------
----------------

8 comments:

Guitube said...

Hi colleague, CoOl your blog Your so fast I have not the level yet.
There is a new concept that is spreading over the web, it is “ThE GuitATiTuDE” Fun and Fabulous it aims to expend the guitar interest outside the boundaries of music . Want to join the community?? the doors are opennns. SEE YOU ON http://guitube.blogspot.com/

Ira James said...

wow so hardcore! :D

Taylor said...

Sounds great to me, as usual...

mother said...

insane.

sk8ericee said...
This comment has been removed by the author.
sk8ericee said...

whats the "r" in the tabs for?

Bryan said...

I attended Portland Bible College for two years, which is where this band is from. I took guitar lessons from Yas Hontani, who is the lead guitarist, and became great friends with the whole band. They are great people with awesome hearts for God, and I couldn't have been more honored to learn from them. Keep an eye out for the new album, Saving Power, which comes out in November!

Guilherme said...

If this song was on Guitar Hero it would kick my butt good! ):
Nice song! :D