We Fall Down (Kutless)

Here's the instrumental to We Fall Down by Kutless... its a pretty refreshing take on an older classic. The rest of the song uses straightforward power/barre chords.



Tabs
----------------------
---6---9-7-6--6-----6-
-6---6----------6-8---
----------------------
----------------------
----------------------

-----------------------
-7--6---9-7-6--6-----6-
------6----------6-8---
-----------------------
-----------------------
-----------------------

-----------------------------
-6b7r6-----------------------
-------8-6-------------------
------------8-8s11-8-p6-6----
-----------------------------
-----------------------------

---------------------
-6b7r6---------------
-------8-6------6----
------------8-8---8--
---------------------
---------------------

For the last part, I like to mute the lower notes.
-----------9---8---6-----------------
---6---9----------------9---7---6-7--
-6---6---6---6---6----6---6---6------
-------------------------------------
-------------------------------------
-------------------------------------

4 comments:

A S (Private) said...

Couldn't find any contact options so just posting here - hope you don't take offense.

Care for a link exchange? One link text to
http://desichords.blogspot.com/ on any "non-nofollow" page for a similar link in return from this related site of mine http://indianguitarchords.blogspot.com/(Visit to understand the nature and amount of cross links - need to do this to gain reciprocal one way links).

ecogtip said...

thanks a lot man and more power from Him who sustain us.

God bless you

DavidPrAise said...

dude can you give me the tabs and video instrumental of we fall down by John Evans plz help me!.. Godbless

DavidPrAise said...

dude can you give me the tabs and video instrumental of we fall down by John Evans plz help me urgent tnxx!.. Godbless