Like Incense

By Luke





Intro/Verses
------ ------
------ ---10-
---(1x)----(15x)
-10--- -10---
----8- ------
------ ------


------- ------
----13- ---13-
-10---- -9----
------- ------

------- ------
---(12x)---(4x)

------ ------ ------ ------
---10- ---8-- ---10- ---8--
------ ------ ------ ------ (play each block 4x)
-10--- -10--- -10--- -10---
------ ------ ------ ------
------ ------ ------ ------

---10- ---8-
------ -----
-10--- -9---
------ -----
------ -----
---(8x)-----

Chorus
--13-------
------13---
--------8-- (4x)
-----------
-----------
-----------

--12-------
------13---
--------12- (4x)
-----------
-----------
-----------

--10-------
------11---
--------10- (4x)
-----------
-----------
-----------

--10-------
------11---
--------12- (4x)
-----------
-----------
-----------

Instrumental
Nigel uses a slide in the original, as I do here, but you can play it just with normal fingers too. Make sure you use lots of vibrato!
-----------------------
-----------------------
-12---14s10---7---5s10-
-----------------------
-----------------------
-----------------------

---------------------
--9---10-------------
-----------9---8-----
---------------------
---------------------
---------------------

8 comments:

Gene_Kelley said...

another comment friend!
Nigel used a ceramic slide for the slide part. They are alot warmer soundin and carry alot more sustain than the glass metal or aluminum ones. we all use the ceramic ones for ease of use too!
good one mate!

Daniel said...

What time is the delay?

pinoysmallbrother said...

very nice guitar.... it's like nigel's

Patrick said...

You should really do more videos you got mad skills

pinoysmallbrother said...

sir what drive did you use for that solo effect?

jarzofclay said...

Along with the last post does he use a E-bow for the solo?

Josh said...

I hate to even bring up technique because these tabs are a blessing. But, if you leave the fingers behind the slide resting on the strings (your index and middle since you have the slide on your ring finger) you get less noise when you move it. it also helps give definition to notes you are playing.

Morgan Boen said...

luke its morgan, nice tabs mate!