Our God is Love

Here's another one from a Beautiful Exchange by Hillsong. Unfortunately I got some of the transitions muddled up.. forgot the parts for awhile :/



Chorus
F# C# D# B

Followed by
---9----9-------
-7---7-----7----
----------------
----------------
----------------
----------------
----------------

Loooooveeeee loveeeeeeee part:

1st guitar, with delay and palm mutes
------------------------
--7-7-7-6-7-7-6-7-------
------------------------
------------------------
------------------------
------------------------
------------------------

2nd guitar, with delay
-----9------9--9-9-----9--
-6h7----6h7--------6h7----
--------------------------
--------------------------
--------------------------
--------------------------
--------------------------

Bridge
----14----14----14------14----14----14--
-12----12----12------11----11----11-----
----------------------------------------
----------------------------------------
----------------------------------------
----------------------------------------
----------------------------------------

----13-----13-----13-------11-----9---------
------------------------------------11------
-13-----13-----13-------11-----11------11---
--------------------------------------------
--------------------------------------------
--------------------------------------------
--------------------------------------------

7 comments:

gino said...

can you tab i will exalt you by hillsong faith hope love album

rogerson said...

G'day could you please tab forever reign

Cheers

JChae93 said...

could you guys tab You pleaseee thank youuu

keep up the great work PRAISE GOD!!

fernando jair said...

hey! kenny! can you post the chords from this song please!! or where can i get it??

thanks!

grettings from mexico!!

John Shin said...

what kind of pedals do you use for this song?

Charlie said...

Love your youtube page. It has helped out our worship team a lot. Are you going to be covering more of the new hillsong album A Beautiful Exchange? I have been trying to find videos on songs The One Who Saves & Forever Reign (Live Version). There are some out there but not very well explained like yours. Love to have your help. Appreciate your ministry.

G Clark said...

I play the instrumental differently because they definitely hit some higher notes in there (the 16 and 14 in my tab)

e----14--14-16---14--14-16---13--13-14---11--9--
b-/12--12------11--11-----/13--13-------------11
g-------------------------------------/11--11---

Other than that, awesome tab!