Love Like Fire

Nick posted the solo a week back, here's the rest of the song!

By Luke



Intro/Verses
-----------------------7-
----9----7----9----7h9---
--9----9----9----9------- (2x)
-------------------------
-------------------------
-------------------------

-----------------------7-
----9----7----9----7h9---
--6----6----6----6------- (2x)
-------------------------
-------------------------
-------------------------

-----------------------7-
----9----7----9----7h9---
-------------------------
--9----9----9----9-------
-------------------------
-------------------------

-----------------------7-
----9----7----9----7h9---
-------------------------
--7----7----7----7-------
-------------------------
-------------------------

-----------------------7-
----9----7----9----7h9---
--9----9----9----9------- (2x)
-------------------------
-------------------------
-------------------------

Pre-Chorus
I turned on my overdrive starting here
-----------------------
-----------------------
-----------------------
--4s6--11--9--6--4-2---
-----------------------
-----------------------

-----------------------
-----------------------
-----------------------
--4s6--11--9--6--4-1---
-----------------------
-----------------------
(repeat)

Chorus
Strum:
--12--------12---9-----
--12---12---14---10----
--9----11---13---9-----
--9----9---------------
-----------------------
-----------------------

Post-Solo
What I did here is played the note with the volume pedal on 0, and slowly turned it up while using the vibrato arm
---------------------
--9---10---9---------
---------------8-----
---------------------
---------------------
---------------------

---------------------
--9---10-------------
-----------9---8-----
---------------------
---------------------
---------------------

(go back to pre-chorus line)

6 comments:

fatboithanh said...

Good stuff...man how much did that beautiful guitar put you back haha

Gene_Kelley said...

Where'd you pickup the doozy? And to make it a little easier, push the amp into a little bit of break up even for the intro and verse parts, and turn the volume knob on your guitar down a little so that wont be THAT much gain. then when the pre-chorus comes in.. kick that knob up! the natural distortion of the amp should be suffice. cheers!

guitardude575 said...

hey man great tone! what pedals did u use?

Eric46405 said...

What gear you using man?

rockerverb08 said...

You gotta post your gear man! Its like guitar etiquette!

David Sim said...

Such an awesome song... Thank you very much and GOD BLESS :)