From the Inside Out (updated tabs)

I originally did the tab for this song some time back, hence it was somewhat lacking. Here's a better version of it.

Btw, I know all of you are eagerly anticipating the new United album, unfortunately it only comes out in my country on 26th May, and I might be overseas during the period. But I'm sure Jerome and the other contributors will get the tabs out really quickly :)



Tabs

Intro
----------------12-------12---10----------

-------13--------------13--13---12--------
-12h14----12h14------12------------12-----
------------------------------------------
------------------------------------------
------------------------------------------

Verse
Pluck:
F9 F9 C G (x2)

For F9, strum -x-x-3-0-1-0


Followed by:
-------------------------------------
-----5-------6-------5----------3----
---5-------5-------5--------4h5------
-7-------7-------5--------5----------
-------------------------------------
-------------------------------------

Pre-Chorus
Pluck/strum:
F9 C Am7 G
F9 C Am7 Dm

Chorus
Strum:
Am F C G
Am F C G
C F G Am
F G F G

Instrumental
Strum:
--------------12--13--12---
-10---8--10---13--13--13---
-10--10--10----------------
---------------------------
---------------------------
---------------------------
Came in too early for the 3rd note in the video.

------------------------------------------
-13p10-12--10h12-----13p12-10-10h12-------
-----------------12-----------------10----
------------------------------------------
------------------------------------------
------------------------------------------

--------------------8p5p0-----
---10-----10------------------
-9----9s7----7----------------
---------------9--------------
------------------------------
------------------------------
Do a teeny bend on the bolded note.

Strum; i changed the first two notes vs the video, as its easier to play it this way:
-12--10--12---15----
-13--13--13---17---- (x2)
--------------------
--------------------
--------------------
--------------------

-------17----17----17----17-------19------
-17p15----15----15----15----15s17---------
------------------------------------------
------------------------------------------
------------------------------------------
------------------------------------------

Download the video

15 comments:

garrett said...

hey kenny, awesome tab bro. just one comment, i think theres a typo in the solo

this part:
--------------------9p5p0-----
---10-----10------------------
-9----9s7----7----------------
---------------9--------------
------------------------------
------------------------------

should be:
--------------------8p5p0-----
---10-----10------------------
-9----9s7----7----------------
---------------9--------------
------------------------------
------------------------------

that's what you play in the video.
awesome work though, keep it up.

Chris said...

Very nice! I love the tone man, can you tell me how you got it? What pedals, settings, ect..?

Chris said...

Wow Kenny. i love it all of it. cept the fact that i learned your old post. i'm stuck with that one now =)

HSK11 said...

Hey, Kenny, is the intro for the song
Intro
----------------12-------12---10----------
-------13--------------13--13---12--------
-12h14-------14------12------------12-----
------------------------------------------
------------------------------------------
------------------------------------------

Cuz that's what I hear you play.
If not, then regard this comment.

Dan Leedham said...

I love playing this with Capo on 5 like he does on the night - During the choruses the 2nd guitarist is turned up when he's playing the chords - and the lead on capo 5 backs off and picks out some little riffs you hear going into the final chorus and the ending.

Everyone's got their own way of playing it - I personally play 1/2 the mighty to save solo and half of this one because of my guitar set up. Thanks for redoing this vid - God Bless

Ovál said...

Nice vid!

I think the intro is played like HSK11 said with a dotted 8th note delay with low mix, low feedback. So the second 12h14 you hear is by the delay.

I would be also happy if someone could tab the lead line starting at about 1:11 (In kenny's vid) and going on through the chorus.

Jerry said...

Could someone tell me which strings are picked when he plays F9, C, and G in the verse.

pepetoniko said...
This comment has been removed by the author.
pepetoniko said...
This comment has been removed by the author.
pepetoniko said...
This comment has been removed by the author.
pepetoniko said...

Really he plays that in solo part:
------------------15--
-17--17--15--17--17-- (x2)
-17--17--17--17------
---------------------
---------------------
---------------------

-------17----17----17----17-------19------
-17p15----15----15----15----15s17---------
------------------------------------------
------------------------------------------
------------------------------------------
------------------------------------------

Zach said...

Hey dude! Thanks for your blog! Have you thought about getting guitar pro? Your skills would fit well with that program.

God bless!

celestmark said...

Anyone got some good Line6 X3 Live presets for this and other Hillsong songs??

celestmark said...

Found some good info on the Presets over at the Line6 forums: http://line6.com/community/thread/9481

Is there an effects section on this blog?

kendall said...

What's the strumming pattern for the chorus? Thanks(: great cover! God bless