From the Inside Out

Intro, Verse
Sometimes playing the right notes isn't enough. How we play them matters as well, and in the case of Inside Out's intro riff, letting the notes ring out makes quite some difference (i.e. don't let go of the notes for each chord).



The fingering (tabs at the end of the post) makes it quite hard to hold on to the notes though, but with practice it can be done.



Electric guitarists often get lost during the verse - strumming, or even plucking the open chords duplicates the acoustic guitarist unnecessarily. One idea is to use material from other parts of the song in the verse, as with using Inside Out's introduction in the verse (but at a lower octave, of course).


Here're the tabs for the clips:




Instrumental (United Live)
As requested, here's the guitar solo for From the Inside Out, United Live version. The solo is played using a clean sound below, for clarity.




Tabs:



Instrumental (Hillsong)



I used an octave shifter, or something like that - the effect doubles what I play, but one and two octaves lower, creating a heavier sound.

Tabs
--------8--------8----------
------8--------8--------8---
-9h10-----9h10-----9h10----- (x2)
----------------------------
----------------------------
----------------------------

-----------------------------
-13-10-12--------------------
----------12s14-14s7-7s9s7s5-
-----------------------------
-----------------------------
-----------------------------

-----------------------------
-8-8s10-10s12-12-12s15-15-15-
-----------------------------
-----------------------------
-----------------------------
-----------------------------

-----12-------12-------12-------12-------15-
--------13-------13-------13-------13-------
--14-------14-------14-------14-------14---- (x2)
--------------------------------------------
--------------------------------------------
--------------------------------------------

--------------------------15-------15----17-
-----12h13p12----12h13p12----12h13----13----
-14-----------12----------------------------
--------------------------------------------
--------------------------------------------
--------------------------------------------

24 comments:

Joseph said...

i like your site. i was wondering why the intro tab wasn't quite right, but this is from mighty to save rather than united we stand. i don't think this intro riff holds anything to the uws one :-)

floofyotter said...

this intro version is really hard to play.

the easier version can be found at http://www.ultimate-guitar.com/print.php?what=tab&id=412475, but doesnt sound quite as good

Anonymous said...

here you go Kenny..

------------8--------------8------------------------------------------------------------------------
---------8--------------8-------------8-------------------------------------------------------------
--8h10---------8h10---------8h10----------9h10---9-------9h10---9--------9h10---9-------
------------------------------------------------------------10---------------10--------------------
-----------------------------------------------------------------------------------------------------
-----------------------------------------------------------------------------------------------------

Omar said...

----------------12--------12---------------
-------13----13--------13----13-15-12------
-12h14----14--------12----------------12---
-------------------------------------------
-------------------------------------------
-------------------------------------------

that the intro riff for united we stand's version

Anonymous said...

Do you think he doesn't know the United version???...of course he does...

I think he put it on the wrong place...

^_^

kenny said...

Thanks for putting the tabs out.. i actually put both versions here.

Omar said...

i dont get it :S, you talikn about kenny or me? cause i know he knows the united version i think i just didnt see it here and some ppl were askin for it so i posted it for them n well to comment on kennys job, GOD bless

Anonymous said...

Can Anybody give me the solo in the key of G?

Thanks

Guan Hang Su said...

what kind of effect are u using?

kenny said...

I'm using a pod xtl

jen jay said...

Hey Kenny, do you have the tabs after the intro?

oli said...

hey, what are the chords used for this song. like for the chorus and etc

ty!

awesome tab btw, love how ur helping the christian community!

Anonymous said...

the real intro you'll hear in the song goes like this:
use your first finger to bar the high b and e on the 8th fret the whole time it's easier than jumping around
-------12--------12--8--9--8---
-8--10------8--10-------------8
---------------------

sean said...

can anyone put up the chorus, or the power chords? thanks.

moses said...

wow praise GOD!

Dominic said...

Here's an easier way to play the intro for the United Live Version:

I---------8--12-------8--12--8--10--7---------
I--8h10--8--------8----------------------8-----
I--------------------------------------------------
I--------------------------------------------------
I--------------------------------------------------
I--------------------------------------------------

Brad said...

this is how i play the intro i think its easier

---------------12-------12-----------------13------------13---13--15----12h14-----12h14---12---------------------------------------------------------------------------------------------------------------------

------------------------------------12------------------------------------12--------------------------------------------------------------------------------------------------------------------------------------

Anonymous said...

well crap that got messed up negate that

Anonymous said...

Kenny,
Which XT LIVE patch do you use for this song (intro, chorus riffs, and solo)? Thanks!

kenny said...

If you download my patches.. it shld be patch 2C for most of the song, and 2A for the solo..

Le Beau said...

DUDE!!! Your "Mighty to Save" instrumental's good, just that your tab doesn't seem to be right for the part with all the slides, you left some out 'cause it's not just those "3" slides, and you play it with more as well. Well, if you can edit it that'd be awesome but keep rockin' dude!!! K, so...it's all good, laters!!!

Akhil Singh said...

dude all the videos have been taken out.. i need the videos desperately.. need to see how to play the intro.. can anyone mail me the video please.. i need it desperately ... please help help

kiyoan said...

while im playing the solo then what chords the other guitar player need to play?

Antonio said...

Thank u; God appreciates