Pick it Up

By Joseph



Intro:

Guitar 1

b-5-4-0-5-4-0-4-0-x2-


Guitar 2

e-------------------------
B-------------------------
G-4-----------4-----8--9--
D-4--6--4--2--4--6--8--9--
A-2--6--4--2--2--6--6--7--
E----4--2--0-----4--------


Verse: B E G# E

Pre-Chorus:

e----------------------------
B----------2—4s5s4-----------
G---4-----------------4------
D--4-4-x7------------4-4—x8--
A-2-----------------2--------
E----------------------------

Chorus: B E F# E

Bridge:

e-5-4-0-5-4-0-4-0-x2---------------------------

Followed by B F# G# E

Bolded numbers represent palm muted notes.

1 comment:

Greg-or-Rick! said...

BOOOO CUBS!! GOOOO CARDINALS!!! hahahaha!!!

anyway keep it up man, maybe try making your guitar stand out more, i didnt even know you were playing until you hit power chords!