Desert Song (Hillsong United)

By Jerome

Here's the new version of Desert Song, in Hillsong United's new album, Across The Earth\\Tear Down The walls. I'm really happy that i managed to get my cd early! In this version United added a few riffs here and there, a few changes but nothing too difficult. :D.



Intro & Pre-verse: octaves
----------------------------------
-15--14--10-12-7--5--10-7--5--12--
----------------------------------
-12--11--7--9--4--2--7--4--2--9---
----------------------------------
----------------------------------

-------------
-------------
--6--7--4----
-------------
--4--5--2----
-------------

Verse: I think i did a varation here, coz i'm not too sure about this is played. You can play without the "12" on the A String if you want.

------------------
------------------
------------------
--9---12----------
--------"12"------
------------------
Rpt each note several times refer to the video


Outro: quite similar to the Intro
----------------------------------
-15--14--10-12-7--5--10-7--5--12--
----------------------------------
-12--11--7--9--4--2--7--4--2--9---
----------------------------------
----------------------------------

--------------
--------------
--6--7--4-----
--------------
--4--5--2-----
--------------

Followed By:
---------------------------------------
-15--14--10-12-------------------------
---------------12-9--14--12-9--6s14-16-
-12--11--7--9-------------------------
---------------9--7--12--9--7--4s12-14-
---------------------------------------

7 comments:

AznKenshin said...

Thanks for sharing, Jerome!

Just had a quick question on how you guys go about recording.

How do you have it set up? Do you use audacity? How do you get various parts and do a fade-in/fade-out for transitions while recording video? Do you directly plug your guitar in your computer? What about the .mp3 track? Do you play that through speakers?

Just questions like that. If you could give me (and everyone!) here a guide on how you do yours, it will GREATLY help me contribute to this site, as I've been here for a long, long, long time.

Oh, and I'm a bassist and there's much work to be done. Heck, don't let bass_levite do all the grunt work!

:)


Best regards,

Darren

Chris said...

DARREN!!!! YOU USE THIS SITE TOO!!!!

THIS IS CHRIS FROM WCAC. you know guitar player

BTW. Jerome i see that you've switched back to your old one. personally i like that other one better

Guitar_man32@yahoo.it said...

Your Welcome AznKenshin ...

Do you use audacity?
-Yes

How do you get various parts and do a fade-in/fade-out for transitions while recording video?
-First i arrange the parts where to fade in and out so while i'm recording it's all done.

Do you play that through speakers?
-Yes, always, i play with the mp3, i turn the volume loud so i can hear parts where to play and to keep the beat of the song.

Do you directly plug your guitar in your computer?
-Yes


To Chris...

Well i change guitar quite often, i use the red when the song is for worship and the COrt for praise songs. ;D


-Jerome

AznKenshin said...

If you plug your guitar to computer, how can you hear it?

Audacity has a delay.

Guitar_man32@yahoo.it said...

Well i hear it because my guitar is plug on the computer and in my amp. I use a POd so i can plug both. hehe

-Jerome

Kira said...

Great Job with the tabs!
Is that an epiphone DOT?

thinking of getting one,
what upgrades did you put in it?

BowlofriceXP said...

Nice, I love the new version.

BTW- Do you have the tabs for the other version of Desert Song?