Soon

By Jerome

Here's a new song written by Brooke Fraser, in Hillsong United's new album, Across The Earth\\Tear Down The walls. It's a piano driven song, no drums, but there's a guitar solo!



Instrumental 1: 1st guitar (clean sound + delaY)
------------------------------
------------------------------
-7-6-4-7-----------------2----
----------4-2-0--5-4-2--------
-----------------------4------
------------------------------

------------------------------
-----------------------8-7----
-7-6-4-7-----------7-9-----6--
----------4-2-0--5------------
------------------------------
------------------------------

Instrumental 2: 1st guitar (clean sound + delaY)

It's 1 octave higher than the 1st guitar, but the notes are similar at the end.

------------------------------
-s15-14-12-15---------8-7-5---
--------------11-9-7----------
------------------------------
------------------------------
------------------------------

------------------------------
-2----s15-14-12-15--------8---
---2---------------11-9-7-----
------------------------------
------------------------------
------------------------------

------------------------------
------8-7---------------------
-7-9-----7-6------------------
------------------------------
------------------------------
------------------------------

3 comments:

Chris said...

you mean brooke ligertwood ;)

Leo Choi said...

haha nobody's ever going to remember to call her that

jonathan ho said...

i think they used a whammy for this song.
that means just play the lower part and the whammy will do the upper part. i think thats how they get the "bubbly" sound at the start of the solo, and how the higher parts seem to have a bit of chorus.

but this is work fine too of course. =))