Rain Down (updated tabs)

Frankly, the old video I did for Rain Down wasn't very clear/well played. Redid the song, and improved on the tabs as well. I based it on the live version, which has a solo in the bridge too.



Tabs

Verse:
-----2-----2-----|0-----0-----0--|
---3-----3-----3-|----3-----3----|
-4-----4-----4---|--4-----4------|
-----------------|---------------|
-----------------|---------------|
-----------------|---------------|

-0-----------0---|---------0-----0-|
-------3---------|---3---------3---|
-----4-----4-----|-4-----4---4-----|
---5-----5-----5-|-----5-----------|
-----------------|-----------------|
-----------------|-----------------|

Prechorus
Mute the B-string only.
----------------------------------------
----------------------------------------
-9-11-11-9-11-11-9-11-11-9-11-11-12-12--
-0-0--0--0-0--0--0-0--0--0-0--0--0--0---
----------------------------------------
----------------------------------------

-----------------------------------------
-----------------------------------------
-9-11-11-9-11-11-9-11-11-9-11-11-12-11-9-
-0-0--0--0-0--0--0-0--0--0-0--0--0--0--0-
-----------------------------------------
-----------------------------------------

-7--7-7-7-----------------------
-10-8-7-8-(strum the chords)----
-7--7-7-7-----------------------
--------------------------------
--------------------------------
--------------------------------


Chorus/Intro
----------------------------------------
----------------------------------------
-9-11-11-9-11-11-9-11-11-9-11-11-12-12--
-0-0--0--0-0--0--0-0--0--0-0--0--0--0---
----------------------------------------
----------------------------------------

-----------------------------------------
-----------------------------------------
-9-11-11-9-11-11-9-11-11-9-11-11-12-11-9-
-0-0--0--0-0--0--0-0--0--0-0--0--0--0--0-
-----------------------------------------
-----------------------------------------

-7--7-7-7-----------------------
-10-8-7-8-(strum the chords)----
-0--0-0-0-----------------------
--------------------------------
--------------------------------
--------------------------------

Bridge
Chords
-------------------------
-------------------------
-5--4---7--6----10--9----
-5--5---7--7----10--10---
-3--2---5--4----8---7----
-------------------------
C G/B D A/C# F C/E

End on a D

Solo part:
---------------------------------------------
-8h10--10--8h10-10s12--10h12-12b13--12p10h12-
---------------------------------------------
---------------------------------------------
---------------------------------------------
---------------------------------------------

-------------------------------------------
--------------------------------8s10-10-8--
-7s9-9-7--9b11--11p9-8--9s11s11------------
-------------------------------------------
-------------------------------------------
-------------------------------------------

--7--------------------------------------
--10---(x8)------------------------------
--7--------------------------------------
-----------------------------------------
-----------------------------------------
-----------------------------------------


Download the video

8 comments:

Hapi said...

hello... hapi blogging... have a nice day! just visiting here....

File said...
This comment has been removed by a blog administrator.
Bass94 said...

Wow nice job Kenny! It's always a blessing to see you tab these out.
I'm not sure if you know this already, but Delirious? is breaking up their band at the end of 2009 :(
I wish they wouldnt

Keyword said...

hello... you may submit this blog to my webBlog Directory, keyworddir.info.. have a nice day!

Keyword Directory

Dan said...

What chords do you use in the verse when it does the effect? Cheers man - awesome song. (I do play it kinda different, but it's the same in essence!)

Chan said...

Hey! Great tabs, I was just wondering what effects you were using in each section of the song! =D

ykeab94 said...

keep working Kenny!

Tiago Alado said...

Congratulations Blog Friend.
May God bless you every day.
'm from Brazil.