Desert Song

I seem to be getting quite a few tabs of Desert Song! Here's one by Jerome.. also check out Neil's and Oliver's tabs on the same song.

By Jerome

Here're the tabs of desert song in my version. Have fun...



Intro: bluesy sound with lil bit of delay.
---------------10----9--------
---7--5--7--------------------
--7--7--7--9s11--11s9-9------- 2x
------------------------------
------------------------------
------------------------------

-------
-(7)---
-(7)---
-(7)---
-(7)---
-------

Verse 1: the rhythm guitar picks one note throughout (g|-7-)with a delay.

Lead guitar, using harmonics:
-----------(7)---------------------
--(7)-(7)-------------------(7)----
-(7)-(7)-(7)---------------(7)-----
---------------(5)-(5)----(7)------
---------------------(5)-----------
-----------------------------------

Verse 2:
---------------10----9--------
---7--5--7--------------------
--7--7--7--9s11--11s9-9------- 2x
------------------------------
------------------------------
------------------------------

-5------
----7---
--7-----
-------
-------
-------

Verse 3:
-(7)-(7)--(5)--------------------------
---(7)-(7)------(7)-(7)----------(7)---
--------------(7)-(7)-(7)------(7)-----
------------------------(7)--(5)-------
---------------------------------------
---------------------------------------


Chorus: clean sound w/ delay
---5--5----5---5----5---5----5---5--
--3-3--3--3-3---3--3-3---3--3-3---3-
---------2----2---0----0---2----2---
-0---0------------------------------
------------------------------------
------------------------------------

---5--5----5---5----5---5--
--3-3--3--3-3---3--3-3---3-
---------2----2---0----0---
-0---0---------------------
---------------------------
---------------------------

Bridge: strum
---------------------------
-14---10---14---15---------
-13---11---14---14---------
-12---12---14---14---------
---------------------------
---------------------------
(i'm not sure at this part)

9 comments:

dyunh said...

Hi Jerome,

What a blessing you are! Thanks for the post of this wonderful video. Would you tell me what is your setting of your gadgets for this song? (placing the value for each fx chain would reeally help) since I can't get the tone right on my GT8.

Appreciate your response.

John-Rock said...

i think that this part

-5-----
----7--
--7----
-------
-------
-------

should actually be like this

-5---0---
-------7-
---7-----
---------
---------
---------

sounds a bit smoother

Thunerz said...

Uhmm..., I think the bridge part should be like this?:

---------------------------
-15---15---14---15---15----
-13---13---14---12---13----
-12---12---14---12---12----
------13-------------------
---------------------------

(I'm also not sure about this, but I think it sounds better.)

Thunerz said...

Sorry it's this(something's wrong with font):

---------------------------
-15---15---14---15---15----
-13---13---14---12---13----
-12---12---14---12---12----
-------13-------------------
---------------------------

Peter said...

God Bless You!!

wangzi said...

All these apparatus attending abundantly colossal with add cheap Pandora ons and add pandora bracelets ons after dress valetine’s Day relations of london merchandising: a big abashed Aga, abounding Maytag fridge pandora Bangles freezer, able Dualit toaster and a retro, ancestors pandora bracelets sized, abatement amount pandora chaplet enamelled aliment pandora bracelets bin.

Falinfashi said...

To select from is indeed significantly wide that you will find elaborate jewelry designs in addition to elegant and straightforward designs. pandora.Buying clothes for comfort can also be yet another practical factor. However, we have a pre-conceived notion that comfortable clothes are not usually stylish and cause you to be appear cool. pandora uk.Positive thing there exists Ed Hardy Clothing. These clothes, although stylish, come in lightweight and comfortable material - permitting individuals to move freely. pandora. A person word of advice-I would prevent acquiring any specific silver jewelry that's not sterling. Pandora Jewelry. Repelling any terrible ingredient during the heavy snow as well as nippy wind, it keeps toes warm along with dry anytime all through winter. ghd sale.Necklaces who have similar sized beads work effectively on tall women and chokers help decrease each side height. ghd straighteners.It truly is accurate cheap Ugg Boots provide method aficionados terrific in addition to broad possibilities to spice up their shows. rrncluding a white and pink compact mirror.ugg boots sale.Longer necklaces aid lengthen each side round or square faces.wedding rings Furthermore they add length when worn beneath the bust-line but above the waist.

seeworld said...

This can be renowned now for the styles. The styles of Sabo are exclusive and loved globally. This jewelry possesses the honor of being thought to be most magnanimous present that you can at any time give.
Pandora Jewellery
pandora bracelets
pandora uk
wedding rings
wedding cakes
mother of bride dresses
wedding bride dresses
thomas sabo uk

seeworld said...

There are styles to present flowers in the front of the blue bridal shoes pandora uk, or beautifully decorated straps that encircle the ankles, pumps that are exquisitely adorned with rhinestones pandora bracelets, not to forget also the choice of beaded flowers that can decorate the blue color of your bridal shoes Pandora Jewellery.You can choose the others that have the pointed toe heels presenting a sparkling stone brooch that decorates the 4” high heels in front conferring the design a very elegant look Mulberry uk. And not to leave yet the luxurious style of blue bridal shoes Mulberry bags, you can choose the 4”heel height of the shoes that are decorated with a bow and great choice of rhinestones making them a perfect choice not only for the blue wedding gown, but also for any other cocktail dress.