Desert Song

By Oliver




Intro
-------------------10-9---- --(7)---
-----------------s7-------- --(7)---
---7-11-7-9-7-11----------- 4x --(7)---
--------------------------- --(7)---
--------------------------- --------
--------------------------- --------

Verse 1
-------------(7)-----------------------------
-------(7)-----------------------------------
----(7)---(7)------------------(7)-----------
------------------------------------(7)------
---------------------------------------------
---------------------------------------------

-------------------------------------10-9----
---------(7)-----------------------s7--------
------(7)------------7-11-7-9-7-11-----------
---(7)---------------------------------------
---------------------------------------------
---------------------------------------------

Last one
---------------------------
-------------------10---7--
---7-11-7-9-7-11-7----7----
---------------------------
---------------------------
---------------------------

Ref

First Guitar

D A G D A Bm G A

Second Guitar

Repeat it
------------------
-----10---10---10-
----7--7-7--7-7--7
---0----0----0----
------------------
------------------

Intro to Verse

-------------------10-9---- --(7)---
-----------------s7-------- --(7)---
---7-11-7-9-7-11----------- 2x --(7)---
--------------------------- --(7)---
--------------------------- --------
--------------------------- --------

Verse 2
--(7)---(5)(7)-------------------------------
-----(7)-------------------(7)---------------
------------------------(7)---(7)------------
---------------------------------(7)---------
---------------------------------------------
---------------------------------------------

-------------------
---------(7)-------
------(7)----------
---(7)-------------
-------------------
-------------------

Ref 2

First Guitar
D A G D A Bm G A

Second Guitar

Repeat it
------------------
-----10---10---10-
----7--7-7--7-7--7
---0----0----0----
------------------
------------------

Last part to build to the bridge
---10-10-10-------
---7--8--10-------
---7--7--7--------
------------------
------------------
------------------

Bridge

First Pluck then Strum to built

---10-10-10-10-10-
---10-7--10-8--10-
---7--7--9--7--7--
------------------
------------------
------------------

End
-------------------10-9---- --(7)---
-----------------s7-------- --(7)---
---7-11-7-9-7-11----------- 4x--(7)---
--------------------------- --(7)---
--------------------------- --------
--------------------------- --------

12 comments:

Guitar said...

would be great kenny if you posted ur version to please! :)

E-rock777 said...

Hey bro what kind of amp and pedals do you have?

Olli said...

I´am using a Fender Hotrod Deluxe in Church, at Home I use my Pa-system to practise.
My Pedals are, Line 6 X3 live, an Ernieball Volume Pedal and a Zak Wylde Wah-pedal

That´s it! (Works great for me!)

Anonymous said...

you are way out of tune. G string. and your riffs are too choppy. practice more before you try and teach

Anonymous said...

"you are way out of tune. G string. and your riffs are too choppy. practice more before you try and teach"

I suggest you do it then? You can take that attitude somewhere else please...

HSK11 said...

Oliver
how good is the POD X3 Live
I am having a hard time choosing between the XT Live and X3 Live.
I heard a lot of good things about both.
But I heard that the X3 Live isn't as good as most people expected.
Uhm...if you could, please send me an email about what you think of the X3 Live.
It would help me a lot.
Thanks
The name is Hyun S. Kim

HSK11 said...

Oliver...by the way...really good job.
I'm hoping that I can get good as you, and the others here in guitarpraise.

Olli said...

Hey Hyun

leave me your email and i will answer you!
or send me a private message in the Forum
my nic is (olli)

a Advice for you to get better is film your playing an you will find every mistake you made!! It help me alot to get better!

greetings Olli

HSK11 said...

Olli
my email is aznpoetnotreally@hotmail.com

Sorry about the long response

I've been doing other things

budters00 said...

Hey man this site is awsome... i do worship at my church and this helps us so much. You guys are a blessing to all of us and dont listen to those guys who leave mean comments. You guys rock. Thanks so much God has blessed all of us so much and we shall praise him forever and ever amen. Just think this is only scratching the surface to how great worship will be in heaven. God Bless everyone

GuitarRocker2409 said...

Amazing job! Dont listen to the guys who are full of themselves and think they're the best! You were great! Helped me so much, i've only been able to chord for a long time and havnt had money to get lessons or anything and am just starting to learn tabs and this helped so much! I've been searching for a good distortion pedal or effect pedal and having a hard time finding one...any suggestions for one that is fairly cheap? I play in my church band as well! Anyways keep up the good work!

Robert said...

Wow - guitar tab right on the video. Why doesn't everyone do it that way? Good job.