Where We Belong

By Kenny & Jean



Intro
--------0---------------------
-4-4-4-4--2-2--s-7-7-7-7------
--4-4-4----4-4-s-8-8-8-8------
------------------------------
------------------------------
------------------------------

Verse
--------0---------------------
-4-4-4-4--2-2--s-7-7-7-7------
--4-4-4----4-4-s-8-8-8-8------
------------------------------
------------------------------
------------------------------
Repeat several times, followed by

------------------------------
-2-2-2-2--5-5-5-5-------------
--3-3-3-3--4-4-4-4------------
------------------------------
------------------------------
------------------------------

--------0---------------------
-4-4-4-4--2-2--s-7-7-7-7------
--4-4-4----4-4-s-8-8-8-8------
------------------------------
------------------------------
------------------------------

Subsequently, strum:
--------0---------------------
-4-4-4-4--2-2--s-7-7-7-7------
-4-4-4-4--4-4--s-8-8-8-8------
------------------------------
------------------------------
------------------------------

and
------------------------------
-2-2-2-2--5-5-5-5-------------
-3-3-3-3--4-4-4-4------------
------------------------------
------------------------------
------------------------------

Prechorus
----------11--------11-------14-
----11h12------11h12-------12---
-13----------11----------13-----
-----------------------14-------
--------------------------------
--------------------------------

-----9----------
------------11--
---8------11----
-9------11------
----------------
----------------

----------11--------11-------14-
----11h12------11h12-------12---
-13----------11----------13-----
-----------------------14-------
--------------------------------
--------------------------------

------7-----------7-------
-9----------11------------
---11----11----11----11---
--------------------------
--------------------------
--------------------------

1st Chorus
-7------------
-7---11---7---
-8---11---9---
-9---11---9---
--------------
--------------

Instrumental
------------------------------
-4-4-4-4--2-2--s-7-7-7-7------
--4-4-4-4--4-4-s-8-8-8-8------
------------------------------
------------------------------

At the louder part, strum
-0---0---0---0---
-0---0---0---0---
-8---9---9---9---
-9---9---9---9---
-9---x---7---7---
-7---9-----------

3 comments:

Chris said...

wow, cool new guitar you have there kenny :)

Yong Quan said...

I think its just me but I think one of the intro notes is wrong... sounded really weird when I played it...

--------0-------------------
-4-4-4-4--2-2--s-7-7-7-7----
--4-4-4----3-3-s-8-8-8-8----
----------------------------
----------------------------
----------------------------



I think its the tabbing above... But I'm not too sure about it.

Thanks!

YQ

Zach said...

Droff plays it like this. Warmer deeper feel when played up the neck...

Intro...play 8x

|---------------------------------------|
|---------------------------------------|
|--8---8---8---8-9-6---6----11-11-11-11-|
|----9---9---9-------9---9--13-13-13-13-|
|---------------------------------------|
|---------------------------------------|


...Can take me from all that I find...

|-----------------------------------|
|-----------------------------------|
|--8---8---8---8---9---9---9---9----|
|----9---9---9---9---9---9---9---9--|
|-----------------------------------|
|-----------------------------------|

You get the idea...

Sounds better in my musical opinion.