Hosanna (post-bridge)

I missed out a portion in my tabs for Hosanna, here's Jean to pick up the slack for me :)

By Jean



---------9-------------9-----11---------
------12---12------------9------9---9---
----9---------9----9-9-----9------9-----
-11-------------11----------------------
----------------------------------------
----------------------------------------

---------9------------------11-------11-12-
------12---12-------------9----9---9-------
----9---------9----9----9--------9---------
-11-------------11---11--------------------
-------------------------------------------
-------------------------------------------

2 comments:

Skapi said...

Nice..

Hey Kenny, you might want to combine this contribution with Hosanna(ending): http://guitarpraise.blogspot.com/2008/05/hosanna.html

It's the same part of the song, but another guitar.

Skapi said...

Sorry, I was mistaken. But maybe you could put al these Hosanna parts together at one page.