Here In Your Presence

Here's Here In Your Presence by New Life Worship. The 2nd half of this song took me quite awhile to get it, till I realised that the guitarist was using a capo on the 5th fret to help with the arpeggios. This solo is really nice, do have a look!



Tabs
Capo the 5th fret. All fingerings are not relative to the capo (i.e. fret them as you would if the capo wasn't there).

--------------------------------------
--------------------------------------
-7-9s11s9s7-7-----7-9s11s9p7-9p7------
--------------7s9---------------------
--------------------------------------
--------------------------------------

---------------------------
---------------------------
-6-7-9-----7-9b11r9p7h9----
-------7h9-----------------
---------------------------
---------------------------

-----------------------------------------
-----------------------------10----------
-7-9s11s9p7-9p7-9p7-9p7-9s11----11s9p7-9-
-----------------------------------------
-----------------------------------------
-----------------------------------------

--------------------------
---------------10-10------
-7h9p7-9s11-11-------11---
--------------------------
--------------------------
--------------------------
I missed out the parts in bold.

Here's where the capo comes in handy, holding down the E string, 5th fret for you.

-10p5-(x3)-12p10-(x3)-14p10-(x3)-12-12p10p5-5-10p5-
---------------------------------------------------
---------------------------------------------------
---------------------------------------------------
---------------------------------------------------
---------------------------------------------------

-10p5-(x3)-12p5-(x3)-14p10p5-(x3)-12h14-12p10-10-
-------------------------------------------------
-------------------------------------------------
-------------------------------------------------
-------------------------------------------------
-------------------------------------------------

-12p10p5-14p10p5-(x3)-15p10p5-14p10p5-12p10p5-
----------------------------------------------
----------------------------------------------
----------------------------------------------
----------------------------------------------
----------------------------------------------

-14p10p5-12p10p5-5-5----------------------
---------------------10-10s14-14s15-15-17-
------------------------------------------
------------------------------------------
------------------------------------------
------------------------------------------

14 comments:

Anonymous said...

awesome!
thanks dude!!! was waiting for that for a while :)

God bless

Anonymous said...

hey check this vid out - http://www.youtube.com/watch?v=PFZyT2fEK3I&NR=1 - he's not using capo there :)

kenny said...

Yikes! I stand corrected.

guitar_pic said...

Hi Kenny, any chance of a redo on the solo after watching the youtube clip? It seems the guitarist's hand was pretty high up on the fretboard.

Thanks for all your efforts with this site. You are really a blessing to everyone.

RecruiterForChrist said...

I think his index finger is on the 14th fret and covers the G,B and E strings...then he hits the A note on the G string and the D, E and F# notes on the B string...listen to the song to get the timing...I'll try to tab it out later...I may be wrong...that's just what it looks like to me

Anthony said...

Hey what key is this in?

Anonymous said...

It's in the key of D. :) Kenny, yeah, any chance of doing the solo again, knowing that its possible to play this without a capo?

Thanks. :)

Anonymous said...

you can play the solo without a capo and when the dude goes further up the neck for that fast part, you can play
----------------------------------------------
-15----15---17----17----19---19---------------
----14---14----14----14---14------------------
----------------------------------------------
----------------------------------------------
----------------------------------------------

just keep your index finger on the 14th fret semi-barring the G an B strings.

hope this helps :)

Anonymous said...

so can someone explain what the h and b and stuff mean on the tabs, i understand that the s means slide, but im a little confused at these other symbols...thanks...

Anonymous said...

b = bad string (so dont play it)
h = hit it
p = poke it

:D

Anonymous said...

thanks, but i figured it out.... :)

Scott said...

Can someone post a video of the reprise version with lead and rythm????

Ben said...

Could anyone tab Overcome by New Life Worship???? It Would be amazing!!!!!!

ken2012 said...

There is a beautiful prominent figure who is often spotted with her fabulous Hermes Constance . Correct, she is Victoria Beckham, an international style icon, fashion designer and also the owner of about 100 Birkin bags. Love her or not, she is the lady who understands fashion and presents herself in a fascinating style.