What the World Will Never Take (2008)

By Jerome

Here's the new version of What The World Will Never Take by Hillsong United, in their latest "With Hearts As One" album.



Instrumental:
-------------------------------------------
------10-----10--10------10-12-12b13r12-10-
-11-11--11-11--11---10-10------------------
-------------------------------------------
-------------------------------------------
-------------------------------------------

-----------------------
-----------------------
----6---6-6---8---8-8--
-7-7-7-7-7-9-9-9-9-9---
-----------------------
-----------------------

-------------------------------------------
------10-----10--10------10-12-12b13r12-10-
-11-11--11-11--11---10-10------------------
-------------------------------------------
-------------------------------------------
-------------------------------------------

2nd part "more faster"
-----------14------------------------------
-12-12b14--17b19--17-17p16h17p16p14--------
-----------------------------------16-18---
-------------------------------------------
-------------------------------------------
-------------------------------------------

-----------------------
-----------------------
-14--------------------
---16--14s13-----------
-----16----------------
-----------------------

In the reprise part

Just play this notes
----------------------------
----------------------------
----------------------------
----------------------------
------2-2-0-0-5-5-0-0-------
----------------------------
repeat several times

You can also do this starting
on the 6th string!
----------------------------
----------------------------
----------------------------
----------------------------
-------------5-5------------
------7-7-5-5---5-5---------

Chords: Bm A D A



Here're the settings on Zoom G1X

Comp/EFX. oF

Drive: Ld
Gain: 17

EQ
Low: 4
Mid: 18
Hi: 18

ZNR/Amp: b4

Modulation: oF

Delay: oF

Reverb: A9
decay: 15

19 comments:

cmorales said...

to me it sounds like they are playing the chords:
Bm D A.
but I may be wrong, Great Job on this tab Jerome!!!

Chrizza! said...

hey jerome. first of all, thanks for the G1X settings. :D

Second, the vid isn't working. :( is that because its too new??

Anonymous said...

Hey, nice job.

But I think you have too much treble and mid in your EQ

Turn the bass up a bit, scoop out your mids and lower your treble a bit.

Good playing, but there's so much treble I feel like throwing up lol.

Chrizza! said...

vid's working now. :D

Anonymous said...

i dont think this is the full solo. can you please post the full solo if you can? thank you!!

Anonymous said...

hi, it´s good but i should really use less drive.
The playing is good! if you just use less treble and less drive it will really improve the sound.

Anonymous said...

...also try to muffle the strings you're not playing (especially those which you just played before!
by the way, nice guitar!

guitaraholic :) said...

there are to guitars workin' on the extended instrumental part on is the

----------------------------
----------------------------
----------------------------
----------------------------
-------------5-5------------
------7-7-5-5---5-5---------

which you'd posted but on the top of that there this like a...

----------------------------
-----17-15-14---------------
----------------------------
----------------------------
----------------------------
----------------------------

its in fast picking.. i'm kinda doin it, and sound ok.. im just kinda curious if my ear is still in right tune.. lol

so, is there it?..

meron non db?.. lol

guitaraholic :) said...

there are two guitars workin' on the extended instrumental part one on is the

----------------------------
----------------------------
----------------------------
----------------------------
-------------5-5------------
------7-7-5-5---5-5---------

which you'd posted but on the top of that there this like a...

----------------------------
-----17-15-14---------------
----------------------------
----------------------------
----------------------------
----------------------------

its in fast picking.. i'm kinda doin it, and sound ok.. im just kinda curious if my ear is still in right tune.. lol

so, is there it?..

meron non db?.. lol

Guitar_man32@yahoo.it said...

To guitaralohic

Yah on the breakdown part I hear to a
tapped notes... But can't get it cause the volume of that guitar is so low. It's hard to pick it.

Don't ya think?

Jerome

Wesley said...

Hey guys, this is what i think i hear as the tapped part..very similar to a certain famous rock song from the past actually.. ;)

B| 12p0 10p0 9p0 10p0 9p0 7p0 9p0 5

Then just repeat it over and over again.

God Bless, awesome job with the site guys!!

WeZ

Dilpil said...

haha Wez I was just thinking that the other day, wouldnt be played by a band that has a name to do with electricity?

I reckon you got it there just pull off the 5 and repeat.

Anonymous said...

hy
I thank God for this site because
y practically learn to play here
so thanks!
but in this song I thing that the fast part
but thanxx:)

Hyun S. Kim said...

for the reprise part
i think you can use this also

-----------------
-----------------
-----------------
-----------------
-------------5---
-----7-7-5-7--5-5

Olivér said...

Wesley:
I tought I'm the only one who thinks this is similar to that big-big rock song :) I'm happy now:) Probably they also love ACDC ;)

renise said...

hi jerome thanks for the tabs... it helped me a lot... keep up the good work! God's blessings be with you!

Joe said...

this actually helped a lot

adan895 said...

-----------------------
-----------------------
-14--------------------
---16--16----14s13-----
----------16-----------
-----------------------
Hey Kanny i thikn this sould go like this no?
bacause i hear iy like this in you video :D

iser said...

jerome just continue to use your talents for the Lord.. Great Job!!!