Salvation is Here (bass)

Kenny: while this song has already been tabbed out, Alan's version is slightly different. Enjoy!

By Alan


The majority of the song may not be exactnote for note. I just mainly made the correct frets and mostly you can hear the number and rythm if you listen to it, but if you need more help please ask. The intro and solo is tabbed EXACTLY as I play it. There are alternate fingerings of course but this is easiest for me. Again feel absolutely free to ask more and tell me if you think I missed something.

This is my first time writing tab, but i figured the "normal" parts of the song are easy to figure out how to play once you have the right notes. Sooo here we go. and if you play it and record it i would love you hear!

Have fun :)



INTRO
VERSE
TURN AROUND
VERSE
CHORUS
INTRO
VERSE
CHORUS
CHORUS
YOUR TIME TO SHINE! SOLO!
CHORUS
BREAK (SLIDE UP AND SSHHH...)
CHORUS
CHORUS
INTRO-NAIL IT FOR A BIG FINISH!


This is all done with 2 fingers


MAKE THESE LOUD AND CLEAR
! !

INTRO-PLAY 2x
G|-------------------------------
D|-------------------------------
A|-/14-14-14-14-14-14-14-14\-----
E|-------------------------------

G|------------------14----------14----------
D|------------------------------------------
A|14-14-14-14-14-14----14-14-14----14-14-14-
E|------------------------------------------

VERSE- PLAY THIS PART 2x
G|----------------------------------------------
D|----------------------------------------------
A|-14-14-14-14-14-14-14-14----------------------
E|-------------------------16-16-16-16-16-16-16-

G|-------------------------------------------
D|-------------------------------------------
A|-------------------------------------------
E|14-14-14-14-14-14-14-14--12-12-12-12--12---

G|-----------------------------------------------
D|-----------------------------------------------
A|-2-2-2-2-2-2-2-2-------------------------------
E|-----------------4-4-4-4-4-4-4-2-2-2-2-2-2-2-2-

G|-------------------------------------------
D|-------------------------------------------
A|-------------------------------------------
E|-0-0-0-0--0-/4-x-4-4-4-2-0--0--0---0--0--2-

TURN AROUND
G|------------------------------------
D|------------------------------------
A|-2--2--2-2-2------------------------
E|-------------0--0--2--2--2-4-4-4--4-

G|------------------------------------
D|------------------------------------
A|-2--2--2-2-2------------------------
E|-------------0--0--2--2--2-4-4-4----


CHORUS

G|-------------------------------
D|-------------------------------
A|-2--2--2-2-2--2----------------
E|----------------0--0--0-0-0--0-

G|-----------------------------

D|-----------------------------
A|-----------------------------
E|-2--2--2-2-2-2--4--4-4-4-4-4-

G|-------------------------------
D|-------------------------------
A|-2--2--2-2-2--2----------------
E|----------------0--0--0-0-0--0-

G|-----------------------------------
D|-----------------------------------
A|---4--4--4--4--4-4-4---------------
E|----------------------0--0--0--0-0-

SOLO
G|-------------16-16-16-18-18-18-16-16-------
D|-18-18-18-18-------------------------18-18-
A|-------------------------------------------
E|-------------------------------------------

G|16----------------------------------18-18-16-16-13-13-
D|---18-------------18-18-18-16-16-16-------------------
A|------14-14-14-14-------------------------------------
E|------------------------------------------------------

G|-------------13-13-13-16-16-16-13-13-16-16-13-13-
D|-14-14-14-14-------------------------------------
A|-------------------------------------------------
E|-------------------------------------------------

G|---------------------20-20-20-18-18-16-16-18-16-
D|------------18-18-18----------------------------
A|16-16-16-16-------------------------------------
E|------------------------------------------------

G|-------------------------------------------
D|-------------9-9-9-11-11-11-9-9-------9----
A|-11-11-11-11--------------------11-11---11-
E|-------------------------------------------

G|-------------------------------------
D|-----------------------11-11-9-9-6-6-
A|--------11-11-11-9-9-9---------------
E|7-7-7-7------------------------------

G|---------6-6-6-9-9-9-6-6-9-9-6-6---------
D|-7-7-7-7---------------------------------
A|---------------------------------9-9-9-9-
E|-----------------------------------------

G|---------13-13-13-11-11-9-9-11-9-
D|11-11-11-------------------------
A|---------------------------------
E|---------------------------------

G|--------------------------------------
D|-------------9-9-9-11-11-11-9-9-------
A|-11-11-11-11--------------------11-11-
E|--------------------------------------

G|------------------------------------------
D|9---------------------------11-11-9-9-11--
A|--11---------11-11-11-9-9-9---------------
E|-----7-7-7-7------------------------------

G|---------------------------------
D|---------------------------------
A|------------------4--4--4--4-----
E|-12--12--12--12------------------


Sliding up at the post-solo chorus...
E|----/19--------------

18 comments:

Anonymous said...

Best playing I've seen for this song :) I will keep this song as my working list.

Keep it up.

Anonymous said...

pretty cool - interesting solo version
thanks dude

Calazula said...

Great tone!

Looking forward for more posts from you.

Anonymous said...

not bad. not bad at all. been working on this one for quite some time now. yours was the best i've ever heard so far. to God be the glory.

DarkRed said...

awesome playing bro! :)

soosan said...

great playing man God Bless :)

Alan (skippy) said...

Thanks everybody for your compliments. Any suggestions for my next?

Anonymous said...

HOLY CRAPPPP!!!!
SWEETTT!!!!

Anonymous said...

sweet! u rock! i hope you'll post loads more buddy!
cheers! ^__^

Anonymous said...

that was just amazing..

Anonymous said...

hey,wads the model of that bass?

Anonymous said...

gooood job! very clean :)

hrm .i can't seem to get those 16th notes down; or they're very inconsistent

anyone got any helpful hints

Anonymous said...

lol what do you do when your fingers get tired after like the first half of the solo

skippy000 said...

Thanks everyone. The bass is an Ibanez SR905 with all EMG electronics. This song took lots of playing over and over until my fingers didn't get tired in the solo. Let me hear all of your versions. I like to hear other people as well. peace out folks!

Jake said...

that's the best I've heard yet. Great job tabbing it out and playing it.
Thanks a lot!

xKorXDanx said...

This is so awsome.. Can you post You alone are God in bass?

Diane said...

That's good stuff bro. We played this at my youth group and since it went really well.

Have you ever heard Jeff Deyo's version of "We Are Hungry"? You should check that out cause I want to see how other people play to see if I'm doing it right.

ssss said...

its kind of hard to hear the bass but its pretty gud. Nice cover