You Are God (bass)

By Bass Levite

Song by Charlie Hall; song #2 Passion 08.

Verse bass riff:



---------------------
-------5-2-------5-2-
---3h5-------3h5-----
-3---------0---------

-------------------------
---5h7-5---5---5h7-5---5-
-3-------7---3-------7---
-------------------------

---------
---------
-----5---
-5h7---5-

2 comments:

remirif said...

Hi im very sorry but this tab is horrible..... the first part isn't even correct... and its the easiest her it is:

G-------------
D-----------3-
A---------5---
E-3--5h7------

123 said...

The replica Hermes is sported by big celebrities and personalities, be it in Europe or in Hollywood. Because of this, Hermes bags have gained maximum media exposure, fueling the publics craving for the famous bags. The very first prototype was sent directly to Jane Birkin herself, and the rest is history.