Light of Salvation (bass)

By Bass Levite

Song by Desperation Band. The bass riff is similar to "All Day" from Hillsong United. Play the same riff over and over again throughout the verse. Endurance is required. Proper fingering is important for repetitive, long riffs like this to reduce wrist movement.

Verse: | Em G | C Bm |

Verse bass riff:



-------------------------
-14-14-------17-17-14----
-------14-17----------14-
-------------------------

-------------------------
-------14----------------
-15-15----15-14-14-17-14-
-------------------------

Chorus: | G | D | Em | C | Em | D | C | C |

Bridge: | Am | Em | G | D |



There are two patterns of the bridge riff. Alternate them.

---------------------------
-7-7h9-7-----5---5h7-------
---------7-5---5-----5-0-5-
---------------------------

-------------------------------
-7-7h9-7-----5-5h7-5---------5-
---------7-5---------5-0-5-7---
-------------------------------

4 comments:

Anonymous said...

yay! its finally out.

Anonymous said...

Hey nice tab! I've been trying to find this everywhere...but one thing...where's the part where it says "Hey,hey,hey,hey, we're shining the light of salvation"

Stephen said...

Thanks for the tab ... as an alternate, I'd like to offer the following (for economy of motion):

-------------12-12-------
-14-14----12-------14----
-------14-------------14-
-------------------------

-------------------------
-------14----------12----
-15-15----15-14-14----14-
-------------------------


This means you have to play across 3 strings vs. 2, but you get a little less hand movement.

777 said...

nice cover but can you put the song endlessly by desperation band, plz. i couldn't find the right tabs
thk u