You Deserve

By Jerome

United's new album has finally arrived! I used the usual dotted 8th note delay.



Intro & Verse:
Rhythm guitar
------------
------------
------------
------------
------------
----4-------
repeat several times

Lead guitar
---------------------------
-9---11---13---9------14---
---------------------------
---------------------------
---------------------------
---------------------------

repeat this part several times

Pre-Chorus:
-----------------8----------
-9---"10-9"(5x)---9-(5x)----
----------------------------
----------------------------
----------------------------
----------------------------
(in this part I'm not sure of the notes coz it isn't clear in the song)

1st Chorus: (Rhythm guitar)
-------------------
-------------------
-------------------
-------------------
-------------------
--4--11--8--(2x)---

-------------------
-------------------
-------------------
-------------------
-------------------
--4--11--8--6------

-------------------
-------------------
-------------------
-------------------
-------------------
--4--11--8---------
repeat each note several
times refer to the video.

Other Chorus parts:

Power chords

C# G# Fm Fm
C# G# Fm Fm
C# G# Fm Fm
D# c# D# C#

Bridge:
Lead Guitar
-----
-16--
-----
-----
-----
-----

------------------
--13--14--11-------
------------------
------------------
------------------
------------------
repeat each note several times.

Instrumental:
----------------------------
-14-13-9-11--14-13-9-11-14--
----------------------------
----------------------------
----------------------------
----------------------------
repeat each note several times.

17 comments:

SiuKeong said...
This comment has been removed by the author.
SiuKeong said...

hey good job on the tabs.
but the lead i think it should be
9-11-13-11--14

and the pre-chorus to me i dont think it would be that simple.
i play it like this
-----------------------------------------
-----------------------------------------
---13------------------------------------
-13----13x---15-13x---12-13x----13x
-----13-----------------------------13---
-----------------------------------------

x - play several times

second part
-----------------------------------------
-----------------------------------------
---13------------------------------------
-13----13x---15-13x---12-13x---15-13x
-----13----------------------------------
-----------------------------------------

* i may be wrong but this is what i observed. pls correct me.

peace.

Chrizza said...

First of all, AWESOME JOB JEROME! Nice work getting this out so early XD. Are you picking every note? It looks like you are, but you said you're using a delay. so yeah. Also, I agree with siukeong on the lead bit, but I'm not sure about his pre-chorus tabs. But hey, great work! *high-fives jerome*

SiuKeong said...

well after listening to it again here's what i get..

-----------------------------------------
-----------------------------------------
-15-13------------------------------------
----------13x---15-13x---12-13x----13x
-------13-----------------------------13---
-----------------------------------------

second part
-----------------------------------------
-----------------------------------------
---13------------------------------------
-13----13x---15-13x---12-13x---15-13x
-----13----------------------------------
-----------------------------------------

Guitar_man32@yahoo.it said...

Yah! I'm not pretty sure about the pre-chorus as you see on my tabs. It's quite confusing though!

Jerome said...

to Chrizza...

About the bit I actually go out...
Ooooopsy!

SiuKeong said...

tabbing is like that. somehow there will just be some part we forgo. heh.
god bless and you guys helped me a lot. i dont need to spend time figuring it out myself xD

Thomas said...

hey how did you find the full version of this song? The cd isnt out yet is it?

Anonymous said...

this cd will only be for sale in the aussie. you can ship it in if you want.

Ruben said...

Nice stuff! but i do have a few suggestions:
first of all the intro + verse i play like this:
---------------------------
-9---11---13---11------14--
---------------------------
---------------------------
---------------------------
---------------------------

And the chorus is plays by 2 guitars which play:
-------------------
-------------------
-------------------
--6---13---10---8--
-------------------
--4---11---8----6--
and:
-------------------
-------------------
--10---17---13--12-
-------------------
--8----15---11--10-
-------------------

Or you could play it on 1 guitar(which is difficult):
-------------------
-------------------
--10---17---13--12-
---6---13---10---8--
-------------------
-------------------

so thats what i thought!
by the way, i can't wait to have more of the songs tabbes by you guys! amazing stuff!
God bless!

Andrew said...

-----------------------------------------
------13--11---------------------------------
----13--13--13--12-13-12-13-------------------------
--13--------------------
---------------------------------------
-----------------------------------------

colin said...

i just wanted to say that you could capo the first fret and play just C G Em x2 and C G Em D Em for the last two choruses.

colin said...

i also wanted to say that the correct pre chorus is played like this


-----------------8----------
-9---"11-9"(5x)---9-(5x)----
----------------------------
----------------------------
----------------------------
----------------------------

i changed the 10 to 11

great tab though!

firecaste01 said...

nigel has released a video on the hillsong youtube channel and hes playing the prechorus section completly differently is there any chance someone can look at this video and tab it out?

Jam said...

Sounds awesome. . .

Matt said...

How Nigel Plays It:

Pre-Chorus:
------8-4---6-4---3-4---4-----
--4-6-----4-----4-----6---6-4-
------------------------------ (x7)
------------------------------
------------------------------
------------------------------

--4--6--8--11--
--6--8--9--13--
---------------
---------------
---------------
---------------

http://www.youtube.com/watch?v=a48cL5jBcC8

wenbinbin2010 said...

Wish I would have just looked in the comments to find the Nigel video pre-chorus, instead of taking a while to figure out what he was doing.

Prechorus:

------8p4---6p4----3h4---4------
--6p4-----4-----/4-----6---6p4--
--------------------------------
--------------------------------
--------------------------------
--------------------------------