You Alone (Kenny's Arrangement)

Here's a contemporary arrangement of an old classic by Don Harris. It's a really powerful song, and worth revitalising today. Check out the full version + instrumental as well.



Tabs

Intro
Chords: A F#m D E

--------12------------------------------
-14---14------12-----12----12-14-12-----
----14-----14-----------------------14--
------------------14----14--------------
----------------------------------------
----------------------------------------

Verse
Chords: A F#m D E

-------7------------7---------
--10----10-10---10---10--10---
-9---9----9----9---9---9------
------------------------------
------------------------------
------------------------------

-------5--------------7-------
---5-----5---5----9-----9---9-
-7---7-----7----9---9-----9---
------------------------------
------------------------------
------------------------------

Pre-Chorus
Chords: F#m E D E Bm A D E
-----0------0-----0--------0--
---0------0-----2--------0----
-2------1-----2--------2------
---------------------2--------
------------------------------
------------------------------

-----------------------------------
-----0-----0----------0-----0------
---2-----2-----2----2-----2-----2--
-4-----4-----4----2-----2-----2----
-----------------------------------
-----------------------------------

----------------------------------------
-----0-----0----------------------------
---2-----2-----2--(strum E chord)-------
-0-----0-----0--------------------------
----------------------------------------
----------------------------------------

Chorus
D E C#m F#m (x3)
Bm D E

Instrumental
D E C#m F#m
----------------------------------------------
-14------14------14-------------17-------17---
------14------14--------16----16------16------
---12-------12------12-----14------14------14-
----------------------------------------------
----------------------------------------------

----------------------------12------12---
-12----12-----12-----10---10-----10------
------9-----9-----------9------9-------9-
---11-----11-----11----------------------
-----------------------------------------
-----------------------------------------

1 comment:

Amy Chow said...

Do you have the music sheets of this song with the melody and chords together? Thanks.