Glory (bass)

By Bass Levite

There are many variations of the bass riff played before the E chord.



-----------
-----------
-------2---
-5-4-5---0-

-----------
-----------
-----2-----
-5-4---2-0-



-------------
-------------
---------2---
-5-4-2-4---0-


Towards the end of the instrumental, move up 1 octave.



----13h14r13----
-14----------14-
----------------
----------------

-------------------
-14h16r14----------
----------14-------
-------------14-12-

----------
-14h16r14-
----------
----------

----------------
----------------
-12-11-14-------
----------14-12-

End with E (not shown)

1 comment:

Praiz2ELoHiM said...

The videos are private and not viewable. :(