Everything Has Changed (Bass)

By Bass Levite

The intro is played fast in 16th notes! Not sure how they made the bass sounds smooth. It could be a humbucker pickup. Mine's single coil pickups so it isn't as smooth. I used open strings to increase speed.

Intro:



The first bar and a half is the same throughout.

-----------------
-----------------
-----------0h2h3-
-3-3-3-3-3-------

-----------------
-0-0-0-0-0-4h5-0-
-----------------
-----------------

-----------------
-2-2-2-2-2-2-0-0-
-----------------
-----------------

The last two beats vary each time it's played.

This one's the first itme round.

-----------------
-----------------
-3-3-3-3-3-3h5---
---------------5-

Second, fourth and sixth time round

---------
---------
-3-2-0-2-
---------

Third and fifth time round

-----------------
-----------------
-3-3-3-3-2-2-0-0-
-----------------


Chorus:



---------------
---------------
-----0h2h3-3-3-
-3-3-----------

-----------------
-0-2-2-2---------
---------3-3-2-0-
-----------------

3 comments:

JJ said...

AWESOME TABS!!! thx a lot!! now i can finally play... I actually thought it was like G followed by D, E, C

BaSS_LeViTE said...

It's basically just | G D | Em C | for the intro. There's just additional notes played in between to funk it up. =)

Anonymous said...

ur an awesome bassist!