You Saw Me

By Jerome

Here's the last song from that I need to tab from the Saviour King album. I used a quarter note delay for the intro, verse and instrumental. I put the gain at 12 o'clock, bass at 1 and treble between 11 and 12 o'clock.



Intro:
-------------------
----5-----5-3-5-3--
-5h7------5-5-5-5--
-----5h7--7-5-5-5--
-------------------
-------------------

----------
----5-----
-5h7------
-----5h7--
----------
----------

Verse:
-------------------
-3-5-5-5-3-5-3-----
-5-5-5-5-5-5-5-----
-5-5-3-5-5-7-5-----
-------------------
-------------------

----------
----5-----
-5h7------
-----5h7--
----------
----------

Instrumental:
--5-5-5-3----------
----------3-3-3h5--
-5-5-5---5-5-5----- (4x)
-------------------
-------------------
-------------------

--5-5-5-3--12-12-12-12-
-----------------------
-5-5-5---12-12-12-12---
-----------------------
-----------------------
-----------------------

--5-5-5-3----------
----------3-3-3h5--
-5-5-5---5-5-5-----
-------------------
-------------------
-------------------

(Repeat each notes refer to the vid)
-------------------
-9--7---9--7--10---
------7------------
-------------------
-------------------
-------------------

Endtro:

-----|------
--5--|--3---
-5---|-5----
-----|------
-----|------
-----|------

4 comments:

DaveL said...

Regarding the "You Saw Me" video By Jerome.

I'm just a moderate Guitar player. What are the (2) Chords in the into after the lead?

jer said...

Thx So Much Again!!!God bless YA!!

fabien said...

hey ma, great job on the tab.
question- what do yo play the second time around the chorus? (chords?)

and by the way, i think the end of the instrumental should be one string down
-------------------
-------------------
-9--7---9--7--10---
------7------------
-------------------
-------------------

so like that.

ken2012 said...

The Rolex, Omega, Harry Winston and Michel Jordi are just some of the key players in wrist replica Breitling watches history. Apparently, it is absolutely not smart to force yourself to buy something you cannot afford. For those who want to experience the beauty and luxury of Swiss watches but don't want to spend much money, they should go for other ideal options.