Praise You

Here's another song from Planetshakers' new album.. hope to do more in the following weeks!



Intro/Verse
Play the B E G# E notes on the E string on 7th, 0th, 4th, 0th frets. Turn up the treble on your EQ to get crisp-sounding bass notes.

Play an F# (2nd fret) to go into the 2nd half of the verse.

Verse (2nd half)
------------------------------
----12----12----11-12---------
-11----11----11---------------
------------------------------
------------------------------
------------------------------

Pre-Chorus
----14-----12-11--------11----
-12-----12--------12-14-------
------------------------------
------------------------------
------------------------------
------------------------------

Bridge
With dotted 8th note delay.
-------------7----------------

----11----11------11----------
-11----11------11----11-------
------------------------------
------------------------------
------------------------------

------------------------------
------------------------------
------------------------------
------------------------------
------------------------------
------------------------------

------------------------------
------------------------------
------------------------------
------------------------------
------------------------------
------------------------------

4 comments:

SAMue1 said...

I was trying this song and what's interesting is that is very hard for me to play the last part... I'm not sure if it's my guitar or I really have short fingers, the same happened while trying to play Mighty to Save, the intro. I've a PRS CE22, I think the Fenders have a smaller arm...???

Chrizza! said...

Thank you SOOO MUCH KENNY!
Awesome tab btw, :D

Justin said...

hey kenny gr8 job on the tab, but i have found something u missed

at the end of each chorus the electric guitar kinda plays the melody line "i will praise you"... the guitarist (i think) slides between these chords - E, Eb, B, C#m, B...?

u can use power chords of octives but it still sounds cool

awesome kenny
Justin

Anonymous said...

Can some one tell me what the chords are couse i can't find them on google :( 10x