Every Little Thing

Here's my favourite Delirious song.. its the kind of song that people need to listen to when they're in the dumps, and lose faith in God.



The chorus & bridge uses chords further up the fretboard, and the instrumental is relatively easy to play.


Tabs
Chorus (strum)
-7--10-10-10-10-10--14-12--12-12-12-12--
-8--10-10-10-10-10--12-12--13-13-12-13--
-7--11-12-11-12-11--12-12--12-12-12-12--
----------------------------------------
----------------------------------------
----------------------------------------

Bridge
Play D, C, followed by
-----------------
-12-12-12-13-12--
-12-12-12-12-12--
-12-12-12-12-12--
-----------------
-----------------

Instrumental (use vibratos)
-15----15-17----17-19----19-19-17-15-
----15-------15-------17-------------
-------------------------------------
-------------------------------------
-------------------------------------
-------------------------------------

-15----15-17----17-12----12----------
----15-------15-------12----12-13----
-------------------------------------
-------------------------------------
-------------------------------------
-------------------------------------

2 comments:

blackwhirls said...

Hi, you know what the elctric guitarist was holding when he was playing the solo/instrumental part for Every Little Thing? He can be seen holding it when the band was playing the song at their perfomance at Willow Creek. Pls get back asap? Thanks and God Bless! :D

Jonathan said...

the second part of the solo [instrumental] you have wrong. its suppose to godownwards from G [15] to [14] F#...chump lol jk jk your really good man. keep it up