Endless Light

By Aaron

Here's Endless Light by Cornerstone.



Verse:

Guitar:
Pickup Position: Middle

Effect:
Clean Boost, (Treble a little boosted)
Dotted 8th Delay ie (think Time Has Come)

Intro:

There are two intro lines,

        C
e----------8---8---8------------------------------------------
B------------------------6-----8-----(x4)--------------------
G----5--------------------------------------------------------
D--------------------------------------------------------------
A--------------------------------------------------------------
E--------------------------------------------------------------

This is the other intro line, either (or both) can be played. I've played this line right at the end of the video.

e-----8----8----8----8----8--------------------------------
B-----8----8----8----6----5--------------------------------
G-----5----5----5----5----5------(x4)---------------------
D--------------------------------------------------------------
A--------------------------------------------------------------
E--------------------------------------------------------------

Verse

        C                                Dm        F                          G            Am                      F          Dm          
e------------------------------------------5-5-5-5-5----5-5-7-7-7----8---8---8---8---8-5-5-5--------------
B--------5-5-5-5-5----5-5-6-6-6----6-6-6-6-6----6-6-8-8-8----10-10-10-10-10-6-6-6--6----6----
G----5--5-5-5-5-5----5-5-7-7-7---------------------------------------------------------------------7----7----
D----------------------------------------------------------------------------------------------------------------------
A----------------------------------------------------------------------------------------------------------------------
E----------------------------------------------------------------------------------------------------------------------


Chorus:

          F                          C                      G                                Dm
e------8----8---8----8----8---8---8---8---10---10---10---10---10---10---10---10--------
B-------10--10--10--10---8---8---8---8----12---12---12---12---10---10---10---10-----
G--------------------------------------------------------------------------------------------------------
D--------------------------------------------------------------------------------------------------------
A--------------------------------------------------------------------------------------------------------
E--------------------------------------------------------------------------------------------------------

          F                          C                        G
e------8----8---8----8----8---8---8---8---10---10---10---10---10---10---10---10--------
B-------10--10--10--10---8---8---8---8----12---12---12---12---12---12---12---12-----
G--------------------------------------------------------------------------------------------------------
D--------------------------------------------------------------------------------------------------------
A--------------------------------------------------------------------------------------------------------
E--------------------------------------------------------------------------------------------------------


Bridge

This is different from what's played on the album, but I think it works.


e-----12--12--12--------------------12--12--12----------------------12---------------------------12-------------------------------
B---------------------15--13---------------------------15--13-----13------13---15---13----12-------12----12b13b12--10--
G--------------------------------------------------------------------------------------------------------------------------------------------
D--------------------------------------------------------------------------------------------------------------------------------------------
A--------------------------------------------------------------------------------------------------------------------------------------------
E--------------------------------------------------------------------------------------------------------------------------------------------


e-----12--12--12--------------------12--12--12-------------------------------------------------------------------------------
B---------------------15--13---------------------------15--13-----8-----5---------------5---------8----5-------------5-----
G-----------------------------------------------------------------------------------5-----7--------5--------------5----7---------
D------------------------------------------------------------------------------------------------------------------------------------
A------------------------------------------------------------------------------------------------------------------------------------
E------------------------------------------------------------------------------------------------------------------------------------

Outro:

e-----8----8----8----8----8----------8----8----8----8---8-------8---------
B-----8----8----8----6----5----------8----8----8----6---5-------8---------
G-----5----5----5----5----5----------5----5----5----5---5-------5---------
D---------------------------------------------------------------------------------
A---------------------------------------------------------------------------------
E---------------------------------------------------------------------------------

3 comments:

Henry Baldoceda said...

Nice Broo... but I play something different like the real video...
:)
is hard because there ar 2 guitars...

Barb Granneman said...

It's amazing video, genuine! I’m looking forward to showing this... plz share with us : Guitar Lessons Carmel.

cecillia said...

thank you, this website has provided very useful knowledge for kawasaki ninja h2r me and others