Love Knows No End

By Aaron

Here's Love Knows No End by Hillsong (Cornerstone Album)



Lead:

Guitar:
Both Pickups

Effects:
Light Overdrive
Dotted 8th (not too high level).

Interlude (x2):

        A                                      C#m
e-------------------------------------------------------------------------------
B---14---14---14----17-------14----14----14----14-------------------
G------16---16---16---------------16----16----16----16---------------
D------------------------------------------------------------------------------
A------------------------------------------------------------------------------
E------------------------------------------------------------------------------

Intro/Verse:

Finish verse with interlude

        A                                      C#m                                            F#m                          D
e---------------------------------------------------------------------------------------------------------------------------------
B---14---14---14----17-------14----14----14----14--------------14---14---17---14---15----15---15---15-----
G------16---16---16---------------16----16----16----16---(x2)-----16---16---16---16----14---14---14---14--
D--------------------------------------------------------------------------------------------------------------------------------
A--------------------------------------------------------------------------------------------------------------------------------
E--------------------------------------------------------------------------------------------------------------------------------

Chorus:

I often play octaves in the second and third choruses.

        A                          E                            D                          A            E
e--------------------------------------------------------------------------------------------------
B---10-(x8)-s14-(x8)-s9-(x8)-s14-(x8)-s7-(x8)-s15-(x8)-14-(x8)-12-(x8)------
G-------------------------------------------------------------------------------------------------
D-------------------------------------------------------------------------------------------------
A-------------------------------------------------------------------------------------------------
E-------------------------------------------------------------------------------------------------

Rhythm:

Guitar:
Bridge Pickup
Tone rolled right back

Effects:
Overdrive
Delay
Reverb

Interlude (x2):

        A                        C#m
e------------------------------------------
B------------------------------------------
G-----6------4--h6----------------------
D----------------------2------------------
A------------------------------------------
E------------------------------------------

Verse/Intro:

This line plays during the intro and second verse, but not the first verse.

      A                            C#m            F#m                  D              A                  C#m
e------------------------------------------------------------------------------------------------------
B------------------------------------------------------------------------------------------------------
G---6------4--h6-------------(x2)-------6-------4--h6-----------------6-----4--h6------------
D---------------------2----------------------------------------4----------------------------2--------
A-------------------------------------------------------------------------------------------------------
E-------------------------------------------------------------------------------------------------------

Chorus:

Just playing power chords

        A          E            D              A              E
e-------------------------------------------------------------------
B-------------------------------------------------------------------
G---------------------------7--------------------------------------
D----7---------2----------7-----------7------------2------------
A----7---------2----------5-----------7------------2------------
E----5---------0-----------------------5------------0-----------


Finish on D

10 comments:

joshghz said...

Perfect timing, mate. I'm doing this song at music practice tonight and this tab will help greatly. Thanks. =)

Hima P said...

thank you.....

tomas adison said...

Excellent post. Thanks a lot for sharing.
read more ...

Sandy Bali said...

This is a hot guitar blog I am looking for. Thank you for sharing your guitar picking techniques Bro. Sandybali

Fahim Ferdoush said...

Nice man good one.. Like this one...
You can chq out this one its a nice Guitar site.you can know about Guitar and it can help you to learn Guitar .I love this Guitar site.

Rexeend Despi said...

good
thank you GODBLESS.

rockingrio said...

NICE ARTICLE AND NICE BLOG FOR GUITAR PLAYERS.....

Barb Granneman said...

Nice post!!! It's amazing video,genuine! I’m looking forward to showing this... Music Classes in Seattle

cecillia said...

kawasaki ninja h2r all had been presented with a perfect through this website .. sharp and accurate information reliable .. thanks you have willingly shared with us.

cecillia said...

Nice info,,terrimaksih Sample Pictures Modern Minimalist House banyak telah toyota new car price berbagi infonya..sukses Picture collection Modern Minimalist House selalu untuk info and websitenya be the best and do the best to the next information.. price and specifications toyota yaris